Cifra Club

Aprenda

Aquarela

Toquinho

Cifra: Solo (violão e guitarra)
Já pensou em usar uma coleção de roupas do Cifra Club? Responda as perguntas abaixo e nos ajude nessa missão! →
tom: G
[Solo]

E|-10--------|--------------10-|-8--7--------------------------|
B|-----------|-7-8-10-8-7-8----|-------10-7h8p7--7-7h8p7-------|
G|---7--9----|-----------------|---------------9---------9-7---|
D|-----------|-----------------|-----------------------------9-|
A|-----------|-----------------|-------------------------------|
E|-----------|-----------------|-------------------------------|

E|-------------------------------------10-10-10-10-10-10---7h8p7-----|
B|--------------------10-10-10-10-10-10---------------------------10-|
G|-7-9-7-9--9--9-7--9------------------------------------------------|
D|-------------------------------------------------------------------|
A|-------------------------------------------------------------------|
E|-------------------------------------------------------------------|

E|--------------------------------------------10-8-7h8p7----7---------------|
B|-7h8p7---7--7h8p7---7--7h8p7---7--7h8p7-8p7------------10---10-8--10--8---|
G|-------9----------9----------9--------------------------------------------|
D|--------------------------------------------------------------------------|
A|--------------------------------------------------------------------------|
E|--------------------------------------------------------------------------|

E|--------------------------------|-------------------7-8-10-10-10s12--12-----|
B|-7h8p7---7----------------------|-------------7-8-10------------------------|
G|-------9---9-7h9p7---7----------|-7-8-9-7-8-9-------------------------------|
D|-------------------10--10--7--9-|-------------------------------------------|
A|--------------------------------|-------------------------------------------|
E|--------------------------------|-------------------------------------------|

E|-10-15-12-14-10-12-8-10-7-7-------|-----------10-|-7h8p7---------------------|
B|----------------------------8-----|----7-8-10----|-----10-7h8p7-7-7h8p7------|
G|-----------------------------7-7--|-7-9----------|-------------9-------9-7---|
D|----------------------------------|--------------|-------------------------9-|
A|----------------------------------|--------------|---------------------------|
E|----------------------------------|--------------|---------------------------|

E|---------------7-8-10-10--12--12-12-10-10-10s-|
B|---------7-8-10-------------------------------|
G|-----7-9--------------------------------------|
D|-8h9------------------------------------------| 
A|----------------------------------------------| 
E|----------------------------------------------|
Composição de Guido Morra / Maurizio Fabrizio / Toquinho / Vinícius de Moraes
Colaboração e revisão:
  • Ricardo
  • Ednaldo Souza
49.249 exibições
  • Simplificar cifra
    • ½ Tom
    • A
    • Bb
    • B
    • C
    • Db
    • D
    • Eb
    • E
    • F
    • F#
    • G
    • Ab
  • Adicionar à lista

    0 comentários

    Ver todos os comentários

    Conseguiu tocar?

    8 Tocaram 3 Ainda não

    Grave um vídeo tocando Aquarela e nos envie!

    00:00 / 00:00
    Outros vídeos desta música
    Repetir Qualidade Automático
    Outros vídeos desta música
    00:00 / 00:00
    Automático
    Capítulos
    • Tocando a Música
    • Dicas iniciais / Equipamentos
    • Acordes da Introdução e Primeira Parte
    • Tocando Introdução e Primeira Parte
    • Ensinando Introdução e Primeira Parte
    • Dicas Pré Refrão
    • Tocando Pre Refrão
    • Dicas Refrão
    • Tocando Refrão
    • Dicas finais / Encerramento
    • Ficha Técnica

    Cifra Club Pro

    Aproveite o Cifra Club com benefícios exclusivos e sem anúncios
    Cifra Club Pro
    Aproveite o Cifra Club com benefícios exclusivos e sem anúncios
    OK