Amigo, Estou Aqui

Toy Story

Tom: Eb (forma dos acordes no tom de C ) Capotraste na 3ª casa
[Intro] C  Am  A#7  C/G  G7
        C  G5+  Gm  G5+

[Dedilhado]

 Parte 1 de 3
   C                  Am
E|---------------0-x---------x--------------|
B|--------1-3--4---x--1------x--------------|
G|------0------4---x--2---2--x--------------|
D|----2------------x---------x--------------|
A|-3-----------2---x----0----x--------------|
E|-----------------x---------x--------------|

Parte 2 de 3
   A#7       C/G         G7
E|--------x---------x-----------------------|
B|-4---3--x--1------x---------0-------------|
G|--------x------0--x---------0-------------|
D|-4------x--2------x--4---3--3-------------|
A|--------x---------x--6---5--5-------------|
E|---4----x----3----x----3----3-------------|

 Parte 3 de 3
   C    G5+  Gm  G5+
E|---0--------------------------------------|
B|---1--------------------------------------|
G|---0--0-0--0-0-0---0-0-0------------------|
D|---2--1-1--0-0-1---1-1-1------------------|
A|-3----2-2--1-1-2---2-2-2------------------|
E|------3----3-----3------------------------|

[Primeira Parte]

C        G     C  C7
Amigo estou aqui
F        F#º   C
Amigo estou aqui
F       C/E    E   Am
  Se a fase é ruim
       F          C/E       E       Am
E são tantos problemas que não tem fim

F      F#º   C     C/E  E   E/G#  Am
  Não se esqueça que ouviu de    mim
  D7     G7    C  A7
Amigo estou aqui
  D7     G7    C  Am  A#7  C/G  G7
Amigo estou aqui

[Primeira parte - 1ª estrofe]

 Parte 1 de 4
   C        G        C       C7
E|------------------------------------------|
B|---1-1-1----0-0-0----1-3-1---1-1-1--------|
G|---0-0-0----0-0-0----0-3-0---3-3-3--------|
D|---2-2-2----0-0-0----2-3-2---2-2-2--------|
A|-3-----------------3-------3--------------|
E|----------3-------------------------------|

 Parte 2 de 4
   F        F#º      C
E|-----------------------0-------x--x-------|
B|---1-1-1----1-1-1------1--4-5--x--x-------|
G|---2-2-2----2-2-2------0--4-5--x--x-------|
D|---3-3-3----1-1-1----2-2-------x--x-------|
A|-------------------3------2/3--x--x-------|
E|-1--------2--------------------x--x-------|

 Parte 3 de 4
   F       C/E     E        Am
E|------------------------------------------|
B|---1-1-1---1-1-1---0-0-0----1-1-1---------|
G|---2-2-2---0-0-0---1-1-1----2-2-2---------|
D|---3-3-3---2-2-2---2-2-2----2-2-2---------|
A|--------------------------0---------------|
E|-1-------0-------0------------------------|

 Parte 4 de 4
   F       C/E     E        Am
E|------------------------------------------|
B|---1-1-1---1-1-1---0-0-0----1-1-1---------|
G|---2-2-2---0-0-0---1-1-1----2-2-2---------|
D|---3-3-3---2-2-2---2-2-2----2-2-2---------|
A|--------------------------0---------------|
E|-1-------0-------0------------------------|

[Primeira parte - 2ª estrofe]

 Parte 1 de 5
   F  F#º C  C/G E  E/G# Am
E|------------------------------------------|
B|-1--1---1--1---0--5----1-1-1-1------------|
G|-2--2---0--0---1--4----2-2-2-2------------|
D|-3--1---2--2---2--2----2-2-2-2------------|
A|--------3--------------0------------------|
E|-1--2------3---0--4-----------------------|

 Parte 2 de 5
   D7       G7       C        A7
E|---2-2-2----1-1-1-------------------------|
B|---1-1-1----0-0-0----1-1-1----2-2-2-------|
G|---2-2-2----0-0-0----0-0-0----0-0-0-------|
D|-0-------------------2-2-2----2-2-2-------|
A|-------------------3--------0-------------|
E|----------3-------------------------------|

 Parte 3 de 5
   D7       G7
E|---2-2-2----1-1-1-------------------------|
B|---1-1-1----0-0-0-------------------------|
G|---2-2-2----0-0-0-------------------------|
D|-0----------------------------------------|
A|------------------------------------------|
E|----------3-------------------------------|

 Parte 4 de 5
   C                  Am
E|---------------0-x---------x--------------|
B|--------1-3--4---x--1------x--------------|
G|------0------4---x--2---2--x--------------|
D|----2------------x---------x--------------|
A|-3-----------2---x----0----x--------------|
E|-----------------x---------x--------------|

 Parte 5 de 5
   A#7       C/G         G7
E|--------x---------x-----------------------|
B|-4---3--x--1------x---------0-------------|
G|--------x------0--x---------0-------------|
D|-4------x--2------x--4---3--3-------------|
A|--------x---------x--6---5--5-------------|
E|---4----x----3----x----3----3-------------|

[Segunda parte]

C        G     C  C7
Amigo estou aqui
F        F#º   C
Amigo estou aqui
F              C/E  E              Am
  Os seus problemas   são meus também
F          C/E        E    Am
E isso eu faço por você e mais ninguém
F            C/E       E      Am
  O que eu quero é ver o seu bem
  D7     G7    C  A7
Amigo estou aqui
D7          G7    C  C7
   Amigo estou aqui

[Dedilhado segunda parte]

 Parte 1 de 7
   C        G        C       C7
E|------------------------------------------|
B|---1-1-1----0-0-0----1-3-1---1-1-1--------|
G|---0-0-0----0-0-0----0-3-0---3-3-3--------|
D|---2-2-2----0-0-0----2-3-2---2-2-2--------|
A|-3-----------------3-------3--------------|
E|----------3-------------------------------|

 Parte 2 de 7
   F        F#º      C
E|-----------------------0-------x--x-------|
B|---1-1-1----1-1-1------1--4-5--x--x-------|
G|---2-2-2----2-2-2------0--4-5--x--x-------|
D|---3-3-3----1-1-1----2-2-------x--x-------|
A|-------------------3------2/3--x--x-------|
E|-1--------2--------------------x--x-------|

 Parte 3 de 7
   F       C/E     E        Am
E|------------------------------------------|
B|---1-1-1---1-1-1---0-0-0----1-1-1---------|
G|---2-2-2---0-0-0---1-1-1----2-2-2---------|
D|---3-3-3---2-2-2---2-2-2----2-2-2---------|
A|--------------------------0---------------|
E|-1-------0-------0------------------------|

 Parte 4 de 7
   F       C/E     E        Am
E|------------------------------------------|
B|---1-1-1---1-1-1---0-0-0----1-1-1---------|
G|---2-2-2---0-0-0---1-1-1----2-2-2---------|
D|---3-3-3---2-2-2---2-2-2----2-2-2---------|
A|--------------------------0---------------|
E|-1-------0-------0------------------------|

 Parte 5 de 7
   F       C/E     E        Am
E|------------------------------------------|
B|---1-1-1---1-1-1---0-0-0----1-1-1---------|
G|---2-2-2---0-0-0---1-1-1----2-2-2---------|
D|---3-3-3---2-2-2---2-2-2----2-2-2---------|
A|--------------------------0---------------|
E|-1-------0-------0------------------------|

 Parte 6 de 7
   D7       G7       C        A7
E|---2-2-2----1-1-1-------------------------|
B|---1-1-1----0-0-0----1-1-1----2-2-2-------|
G|---2-2-2----0-0-0----0-0-0----0-0-0-------|
D|-0-------------------2-2-2----2-2-2-------|
A|-------------------3--------0-------------|
E|----------3-------------------------------|

 Parte 7 de 7
   D7       G7       C        C7
E|---2-2-2----1-1-1-------------------------|
B|---1-1-1----0-0-0----1-1-0----1-1-1-------|
G|---2-2-2----0-0-0----0-0-0----3-3-3-------|
D|-0-------------------2-2-2----2-2-2-------|
A|-------------------3--------3-------------|
E|----------3-------------------------------|

[Terceira parte]

F
  Os outros podem ser
  B7
Até bem melhores do que eu
C7           B7    C7  B7  Bb7  B7  C7
  Bons brinquedos são
       B7       A/C#  Bb/D  B/D#
Porém,   amigo seu é coisa séria
     Em   A7     Dm  G
Pois é opção do coração (viu?)

[Dedilhado terceira parte]

Parte 1 de 4
   F               B7
E|------------------------------------------|
B|---1-1-1---1-1-1---4-4-4----4-4-4---------|
G|---2-2-2---2-2-2---2-2-2----2-2-2---------|
D|---3-3-3---3-3-3---4-4-4----4-4-4---------|
A|-----------------2--------2---------------|
E|-1-------1--------------------------------|

Parte 2 de 4
   C7       B7      C7 B7 Bb7 B7 C7
E|------------------------------------------|
B|---5-5-5---4-4-4--5--4--3---4--5-5-5-5----|
G|---3-3-3---2-2-2--3--2--1---2--3-3-3-3----|
D|---5-5-5---4-4-4--5--4--3---4--5-5-5-5----|
A|-3-------2--------3--2--1---2--3----------|
E|------------------------------------------|

Parte 3 de 4
   B7       A/C#     Bb/D     B/D#
E|------------------------------------------|
B|---4-4-4----2-2-2----3-3-3----4-4-4-------|
G|---2-2-2----2-2-2----3-3-3----4-4-4-------|
D|---4-4-4----2-2-2----3-3-3----4-4-4-------|
A|-2--------4--------5--------6-------------|
E|------------------------------------------|

Parte 4 de 4
   Em       A7       Dm       G
E|---------------------1-1-1----3-3-3-------|
B|---0-0-0----2-2-2----3-3-3----0-0-0-------|
G|---0-0-0----0-0-0----2-2-2----0-0-0-------|
D|---2-2-2----2-2-2--0----------------------|
A|----------0-------------------------------|
E|-0--------------------------3-------------|

[Quarta parte]

C          B7M(5+)  Bb6  C  C7
  O tempo vai   passar
   F         F#º   C
Os anos vão confirmar
F            F#º            C  E/G#  Am
  Às três palavras que eu pro_fe____ri

D7          G7    C  A7
   Amigo estou aqui
D7          G7    C  A7
   Amigo estou aqui
  D7     G     C  Am  A#7  C/G  G7  C
Amigo estou aqui

[Quarta parte - 1ª estrofe]

 Parte 1 de 3
   C    B7M(5+) Bb6  C C7
E|---0--------------------------------------|
B|---1--0-0-----3-3--1---1-1-1--------------|
G|---0--0-0-----0-0--0---3-3-3--------------|
D|---2--1-1-----0-0--2---2-2-2--------------|
A|-3----2-------1------3--------------------|
E|------------------------------------------|

 Parte 2 de 3
   F        F#º      C
E|-----------------------0-------x--x-------|
B|---1-1-1----1-1-1------1--4-5--x--x-------|
G|---2-2-2----2-2-2------0--4-5--x--x-------|
D|---3-3-3----1-1-1----2-2-------x--x-------|
A|-------------------3------2/3--x--x-------|
E|-1--------2--------------------x--x-------|

 Parte 3 de 3
   F        F#º      C  E/G#  Am
E|----------------------------0-------------|
B|---1-1-1----1-1-1--1--5-----1-------------|
G|---2-2-2----2-2-2--0--4-----2-------------|
D|---3-3-3----1-1-1--2--2-----2-------------|
A|-------------------3--------0-------------|
E|-1--------2-----------4-------------------|

[Quarta parte - 2ª estrofe]

 Parte 1 de 5
   D7       G7       C        A7
E|---2-2-2----1-1-1-------------------------|
B|---1-1-1----0-0-0----1-1-1----2-2-2-------|
G|---2-2-2----0-0-0----0-0-0----0-0-0-------|
D|-0-------------------2-2-2----2-2-2-------|
A|-------------------3--------0-------------|
E|----------3-------------------------------|

 Parte 2 de 5
   D7       G7       C     A7
E|---2-2-2----1-1-1-------------------------|
B|---1-1-1----0-0-0----1-0-2----2-2-2-------|
G|---2-2-2----0-0-0----0-0-0----0-0-0-------|
D|-0-------------------2-2-2----2-2-2-------|
A|-------------------3--------0-------------|
E|----------3-------------------------------|

 Parte 3 de 5
   D7       G7
E|---2-2-2----1-1-1-------------------------|
B|---1-1-1----0-0-0-------------------------|
G|---2-2-2----0-0-0-------------------------|
D|-0----------------------------------------|
A|------------------------------------------|
E|----------3-------------------------------|

 Parte 4 de 5
   C                  Am
E|---------------0-x---------x--------------|
B|--------1-3--4---x--1------x--------------|
G|------0------4---x--2---2--x--------------|
D|----2------------x---------x--------------|
A|-3-----------2---x----0----x--------------|
E|-----------------x---------x--------------|

 Parte 5 de 5
   A#7       C/G         G7       C
E|--------x---------x-------------0---------|
B|-4---3--x--1------x---------0---1---------|
G|--------x------0--x---------0---0---------|
D|-4------x--2------x--4---3--3---2---------|
A|--------x---------x--6---5--5---3---------|
E|---4----x----3----x----3----3-------------|
Página 1 / 1

Letras e título
Acordes e artista

resetar configurações
OK