Cifra Club

Aprenda

Por Seu Amor (quando Eu Era Amada/when She Loved Me)

Toy Story

Cifra: Principal (violão e guitarra)
Tom: F
Base: F Bb C (todos em forma de pestana)

Obs: A letra da musica está posicionada em cima da parte correspondente na tablatura

Tablatura:
  F                     Bb          C                 F                     Bb         C
  Quando eu era amada  Via o mundo todo azul    Tudo que passamos juntas   Fala o coração
E|---------------------------------------------|-----------------8-----------------------|
B|---6-6-5-6-------------------10-8-6-8--------|-6-8-10-8-6-8-10------------------6-8----|
G|-5---------5---------7-10-10-----------------|----------------------------7-5-7--------|

    F                 Bb            C              F                   Bb        C          (F Bb C)
  Quando entristeceu  O seu pranto enxuguei   Ao ficar feliz também fiquei  Por seu amor
E|-------------------------------------------|-----------------8-----8------------------------------------|
B|--6-6-5-6--------------------10-8-6-8------|-6-8-10-8-6-8-10--------------11-10-8-6---------------------|
G|-5-------------------7-10-10---------------|-------------------------10----------------5-5-3-3-2-2-0----|

   F                         Bb          C             F                      Bb         C
  No outono e no verão    Jamais havia solidão     Juntinhas só nos duas    Assim devia ser
E|-10-13-13-12-12-10-10----8-8-10-10-8-8----------|-------------------------------------------|
B|------------------------------------------------|-10-10-11-11-10-10-------------10-8-6-8----|
G|---------------------------------------10-10----|-------------------10----10-10-------------|

  F                 Bb            C            F       Bb   C               (F Bb C)
  Ao ficar sozinha  Seu conforto era eu   Eu sabia     Ter amor
E|---------------------------------------|-5-6-8-6-------5-3-1--------------------------------------|
B|---6-6-5-6-----------------10-8-6-8----|----------------------------------------------------------|
G|-5---------5-------7-10-10-------------|--------------------------5-5-3-3-2-2-0----5-5-3-3-2-2-0--|

  F               Bb           C         F                            Bb             C
  Muito se passou  E eu não mudei    Mas ela aos poucos me esqueceu   Me deixou tão só
E|-------5----------5-6---5---------|-------5----------------------------5--------------|
B|-6-5-6---8------------8-----------|-6-6/8---8-5-6-8------------------8---8-5-6--------|
G|----------------------------------|-----------------7---------------------------------|

  F                                 Bb         C
  Mas um dia acho eu    Vou dela ouvir: "Vou sempre te amar"
E|-4/6-8-6-------6----|------8--8/11-9-8---------------------|
B|---------8-9---6----|----9-------------11-9-8--------------|
G|--------------------|-10-----------------------------------|

   F                Bb             C                  F                 Bb          C           F      Bb C
  Só e esquecida   Não pensei ter atenção  Ela me agarrou sorrindo foi como sempre fez   Quando ela me amava
E|----------------------------------------|---------------------------------------------5-6-8-----------------|
B|---6-6-5-6---------------10-8-6-8-------|-4/6-8-10-8-6-8---10-------6-8---------------------6-----6-8-10----|
G|-5---------5-----7-10-10----------------|---------------------7-5-7--------------------------------------5--|

  F                     Bb          C                  F                    Bb         C
  Quando eu era amada  Via o mundo todo azul    Tudo que passamos juntas   Diz ao coração
E|---------------------------------------------|-----------------8-----------------------|
B|---6-6-5-6-------------------10-8-6-8--------|-6-8-10-8-6-8-10------------------6-8----|
G|-5---------5---------7-10-10-----------------|----------------------------7-5-7--------|


    Com seu amor             (F Bb C)
E|-6-5-3-1-------|------------------------------|
B|---------------|------------------------------|
G|---------------|-5-5-3-3-2-2-0----5-5-3-3-2-2-|


Final: F
Composição de Randy Newman
Colaboração e revisão:
  • Victor Torres
6.250 exibições
    • ½ Tom
    • A
    • Bb
    • B
    • C
    • Db
    • D
    • Eb
    • E
    • F
    • F#
    • G
    • Ab
  • Adicionar à lista

    0 comentários

    Mostrar mais comentários

    Conseguiu tocar?

    1 Tocaram 1 Ainda não

    Grave um vídeo tocando Por Seu Amor (quando Eu Era Amada/when She Loved Me) e mande pra gente!

    00:00 / 00:00
    outros vídeos desta música
    repetir qualidade Automático
    Outros vídeos desta música
    00:00 / 00:00
    Automático
    OK