Period

Tragicômico

tom: A
E|---------------|-----------------|----------------------|
B|---4-6-6-4--4--|---4-6/8-8-6-4-6-|-6-4---6/8-6-4--------|
G|-/5-------7----|-/5--------------|-----7---------7-5--5/|
D|---------------|-----------------|----------------------|
A|---------------|-----------------|----------------------|
E|---------------|-----------------|----------------------|

    C9
Vem aqui, já sabe pra onde ir
G
Logo mais eu sei que vamos chegar
C9                      D
Por aí, deixando o tempo seguir
   G
Pra suspirar
C9            D                   G      D       Em
O tempo vai levar pra longe, o que eu tentei segurar
            Am          G               B
Mas sei que agora não vou esquecer, pra nunca mais eu ver partir

  C#m               A
O amor que existe aquí
      E         B
E que faz acreditar
         C#m            A             B
Que esse laço é forte e não vai se soltar
      C#m          A
Se um dia eu me perdi
     B
Você fez eu me encontrar
    A                 B             C#m
Bem aqui eu sei que o tempo vai parar

E|---0-2-2-0---0-|---0-4-4-2-0-2-|-0-----0---2-0-|
B|-2---------4---|-2-------------|---4-2---4-----|
G|---------------|---------------|---------------|
D|---------------|---------------|---------------|
A|---------------|---------------|---------------|
E|---------------|---------------|---------------|

    C9                     D
Eu senti meu corpo inteiro queimar
G
Ao lembrar de tudo que aconteceu
C9                      D
E segui até onde eu pude ir
   G         Em
Pra suportar

C9                                  D
E eu vou cumprir, prometi só pra ti ver
           G            Em
Que vou te trazer esse som
    Am                   G                 C                B
Pra saber (e sonhar) que aqui (te abraçar) o que eu canto é pra você

    C#m             A
Não desvio o meu olhar
    E              Bm
Pra saber o que eu vi
C#m           A              B
Sei que posso encarar o que for
    C#m             A
Se o destino está aqui
  E              B
A força vai aparecer
  A             B            A         B
E fazer com que eu não sinta mais dor
G#m C#m                  B
Já não sei mais pra onde olhar
       A           B
Mas eu sei como seguir

      C#m        A
Passo pelo céu azul
       E         Bm
Mal consigo aguentar
     C#m              A            B
Esse fogo que em meu peito queimará
   C#m               A
Eu corri de norte a sul
     E         B
Já é hora de parar
    A                 B              A  B
Pra ficar com quem eu sempre quis estar
    C#m             B           A
E a verdade vem pra nos acompanhar
Página 1 / 1

Letras e título
Acordes e artista

resetar configurações
OK