Cifra Club

A Tua Graça Me Basta

Trazendo a Arca

Cifra: Principal
exibições 240.414
Tom: E
[Intro]  C#m7/9  C#m/B  A7M  E/G#  F#m7/9  C#m7/9  C#m/B  A7M  A/B

E                                   A9
Eu não preciso ser reconhecido por ninguém
E                                  A9
A minha glória é fazer com que conheçam a ti
C#m      B9   A9                     F#m            B9
E que diminua eu pra que tu cresças Senhor  mais e mais
E                                        A9
E como os serafins que cobrem o rosto ante a Ti
E                                    A9
Escondo o rosto pra que vejam Tua face em mim
C#m      B9   A9                        F#m        B9
E que diminua eu pra que Tu cresças Senhor mais e mais
  
                 A9                F#m
No Santo dos Santos a fumaça me esconde
                     C#m     B9             A9
Só os teus olhos me veêm  debaixo de tuas asas
           F#m                C#m
É o meu abrigo  meu lugar secreto
              B9    A9               B9          E
Só tua graça me basta e tua presença é o meu prazer

[Solo]

E|--------------------------------------------------------|
B|-4/5---4------------------------------------------------|
G|----------4-4--6--6--4/6--4-----------------4--6--------|
D|-----------------------------6-6--7-7--6/7---------6----|
A|--------------------------------------------------------|
E|--------------------------------------------------------|

E|-11/12-11-----------------------------11--12-14--16--17-|
B|-----------12-12---14--14-12/14--12---------------------|
G|--------------------------------------------------------|
D|--------------------------------------------------------|
A|--------------------------------------------------------|
E|--------------------------------------------------------|

                 A9                F#m
No Santo dos Santos a fumaça me esconde
                     C#m     B9             A9
Só os teus olhos me veêm  debaixo de tuas asas
           F#m                C#m
É o meu abrigo  meu lugar secreto
              B9    A9             B9            E
Só tua graça me basta e tua presença é o meu prazer

           E             A9
Tua presença  tua presença é o meu prazer
           E             A9
Tua presença  tua presença é o meu prazer
           C#m           B9
Tua presença  tua presença é o meu prazer
           A9            B9
Tua presença  tua presença é o meu prazer
Acordes para:
    Colaboração e revisão:

    0 comentários

      mostrar mais comentários

      Conseguiu tocar?

      12tocaram0ainda não

      Grave um vídeo tocando A Tua Graça Me Basta e mande pra gente!

      00:00 / 00:00
      outros vídeos desta música
      repetirqualidadeautomática
      Outro vídeos desta música
        00:00 / 00:00
        automática
        OK