Cifra Club

Tua Graça Me Basta

Trazendo a Arca

Cifra: Principal (violão e guitarra)
tom: E
[Intro] E/C#  E/B  A9  E/G#  A9/F#
        E/C#  E/C#  E/B  A9  E/G#  A9/F#  B4  B9

E9                               E4   B/E
 Eu não preciso ser reconhecido por ninguém
E9                                 E4            E4
 A minha Glória é fazer com que conheçam a Ti
C#m      B9    A9                        F#m           B9
 E que diminua eu pra que Tu cresças senhor mais e mais

E                                         A9
 E como os serafins que encobrem o rosto ante a Ti
E                                   A9
 Escondo o rosto para que vejam Tua face em mim
C#m    B9        A9                      F#m           B9
 e que diminua eu pra que Tu cresças senhor mais e mais

               A9                  F#m
No santo dos santos a fumaça me esconde
                 C#m        B9            A9         F#m
Só teus olhos me veem    debaixo de Tuas asas é meu abrigo
             C#m               B9  A9            B9                 E
Meu lugar secreto só Tua graça me basta e Tua presença é o meu prazer

( A  E/G#  F#m  C#m  B  A  E/G#  F#m  C#m  B  A  B  E )

E|--------7-7/9------------7-7/9-------------|
B|------9--------7/9-7-9--9-------10-9--7----|
G|-------------9----------------9---------9--|
D|-------------------------------------------|
A|-------------------------------------------|
E|-------------------------------------------|

E                               A9
 Eu não preciso ser reconhecido por ninguém
E                                   A9
 A minha Glória é fazer com que conheçam a Ti
C#m      B9    A9                        F#m           B
 E que diminua eu pra que Tu cresças senhor mais e mais

E                                         A9
 E como os serafins que encobrem o rosto ante a Ti
E                                    A9
 Escondo o rosto para que vejam Tua face em mim
C#m      B9    A9                        F#m           B
 e que diminua eu pra que Tu cresças senhor mais e mais

               A9                 F#m
No santo dos santos a fumaça me esconde
                 C#m       B9             A9         F#m
Só teus olhos me veem    debaixo de Tuas asas é meu abrigo
             C#m               B9  A9             B9                E
Meu lugar secreto só Tua graça me basta e Tua presença é o meu prazer
               A9                 F#m
No santo dos santos a fumaça me esconde
                 C#m        B9            A9         F#m
Só teus olhos me veem    debaixo de Tuas asas é meu abrigo
             C#m               B9  A9             B9                E
Meu lugar secreto só Tua graça me basta e Tua presença é o meu prazer

[Solo] A E/G# F#m C#m7 B A B E

E|------------------------------------------|
B|--4/5-4-----------------------------------|
G|-------4-4-6-6-4/6-4-------------4-6------|
D|---------------------6-6-7-7-6/7-----6----|
A|------------------------------------------|
E|------------------------------------------|

E|-----------------------------16/17-17---------------------|
B|--17-16--12-12-14-14-14-16/17--------16-17-12-14--5-7-7p9-|
G|----------------------------------------------------------|
D|----------------------------------------------------------|
A|----------------------------------------------------------|
E|----------------------------------------------------------|

E|-----------------------------|
B|-16-17-12-14--5-7-7p9---17---|
G|-----------------------------|
D|-----------------------------|
A|-----------------------------|
E|-----------------------------|

                 A9               F#m
No santo dos santos a fumaça me esconde
                 C#m       B9             A9         F#m
Só teus olhos me veem    debaixo de Tuas asas é meu abrigo
             C#m               B9  A9             B9                E
Meu lugar secreto só Tua graça me basta e Tua presença é o meu prazer
        E             A9
Tua presença, Tua presença é o meu prazer
        E            A9
Tua presença, Tua presença é o meu prazer
         C#m         B9
Tua presença, Tua presença é o meu prazer
       A9            B9
Tua Presença, Tua presença é o meu prazer

                 A9                F#m
No santo dos santos a fumaça me esconde
                  C#m      B9             A9         F#m
Só teus olhos me veem    debaixo de Tuas asas é meu abrigo
              C#m              B9  A9             B9                E
Meu lugar secreto só Tua graça me basta e Tua presença é o meu prazer
             B9  A9             B9                E
Só Tua graça me basta e Tua presença é o meu prazer
00:00 / 00:00
Outros vídeos desta música
Repetir
Outros vídeos desta música
Composição de Luiz Arcanjo
96.553 exibições
    • ½ Tom
    • A
    • Bb
    • B
    • C
    • Db
    • D
    • Eb
    • E
    • F
    • F#
    • G
    • Ab
  • Adicionar à lista

    0 comentários

    Ver todos os comentários

    Entre para oCifra Club PRO

    Tenha acesso a benefícios exclusivos no App e no Site

    • Chega de anúncios

    • Prioridade de compra em lançamentos

    • Mais recursos no app do Afinador

    • Atendimento Prioritário

    • Descontos nos produtos Cifra Club

    • Ajude a produzir mais conteúdo

    00:00 / 00:00

    Cifra Club Pro

    Aproveite o Cifra Club com benefícios exclusivos e sem anúncios
    Cifra Club Pro
    Aproveite o Cifra Club com benefícios exclusivos e sem anúncios
    OK