Cifra Club

Agarrada Em Mim

Trio Para Amar

Cifra: Principal (violão e guitarra)
tom: Bb
Introdução: Bb Dm Eb F Bb F

E|--------------2/3------------------2/3-----------------------3----------
B|-3/6--1/3--6------6-4-3-6~--1/3--6-----6---4-3-4-3-------6-----3--------
G|----------------------------------------------------5-3-----------5-----
D|------------------------------------------------------------------------
A|------------------------------------------------------------------------
E|------------------------------------------------------------------------

E|----------------------7~------------------------------------------------
B|----------------4--7----------------------------------------------------
G|---343-------4----------------------------------------------------------
D|--------7-7-6-----------------------------------------------------------
A|------------------------------------------------------------------------
E|------------------------------------------------------------------------
   Bb
Enquanto a cidade dorme 
               Eb
e eu aqui me lembro
                        
         F           Bb    F 
Quanto tempo,quanto tempo
    Bb
A gente já não fica junto
              Eb
mais nenhum momento
                       
         F           Bb   Bb7  
Quanto tempo,quanto tempo
    Eb                  F
Eu sei que foi só uma transa
           Dm                Gm 
Mas sua lembrança me deixou assim
   Eb                 F
Querendo ter você de novo 
                 
   Bb          Bb7
agarrada em mim
    Eb                  F
Desculpe se eu senti saudade,
             Bb                 Gm
Se me deu vontade,eu não sei fingir
                               
      Eb          F           Bb  F         
Faz tempo,mas eu nunca te esqueci
  Bb                        Dm
Vem,quero amar seu corpo inteiro
                    Eb
Namorar,sentir seu cheiro
                       
        Cm           F
Sem ter pressa de acabar,o,o,o
 Bb                      Dm 
Vem,que eu estou aqui sozinho
                Bb
Precisando de carinho
     Riff 05          
       F            Bb  F
Com vontade de te amar

E|--------------2/3------------------2/3-----------------------3-----------
B|-3/6--1/3--6------6-4-3-6~--1/3--6-----6---4-3-4-3-------6-----3---------
G|----------------------------------------------------5-3-----------5------
D|-------------------------------------------------------------------------
A|-------------------------------------------------------------------------
E|--------------------------------------------------------------------

E|-------------765/65----------------------------------------------------|
B|---------------------765/65--------------------------------------------|
G|---343-----------------------7-5----------------------------------------|
D|---------------------------------7-8------------------------------------|
A|------------------------------------------------------------------------|
E|------------------------------------------------------------------------|

    Eb                  F
Eu sei que foi só uma transa
           Dm                Gm 
Mas sua lembrança me deixou assim
   Eb                 F
Querendo ter você de novo ,
               
   Bb          Bb7
agarrada em mim
    Eb                  F
Desculpe se eu senti saudade,
             Bb                 Gm
Se me deu vontade,eu não sei fingir
                                
      Eb          F           Bb  F         
Faz tempo,mas eu nunca te esqueci
  Bb                        Dm
Vem,quero amar seu corpo inteiro
                    Eb
Namorar,sentir seu cheiro
                     
         Cm           F
Sem ter pressa de acabar,o,o,o
 Bb                      Dm 
Vem,que eu estou aqui sozinho
                Bb
Precisando de carinho
                   
      F            Bb  F
Com vontade de te amar
  Bb                        Dm
Vem,quero amar seu corpo inteiro
                    Eb
Namorar,sentir seu cheiro
         Cm           F
Sem ter pressa de acabar,o,o,o
 Bb                      Dm 
Vem,que eu estou aqui sozinho
                Bb
Precisando de carinho
      F            Bb  F
Com vontade de te amar.
00:00 / 00:00
Outros vídeos desta música
Repetir
Outros vídeos desta música
Compositor não encontrado.
Colaboração e revisão:
  • Charles Pinto
2.882 exibições
    • ½ Tom
    • A
    • Bb
    • B
    • C
    • Db
    • D
    • Eb
    • E
    • F
    • F#
    • G
    • Ab
  • Adicionar à lista

    0 comentários

    Ver todos os comentários

    Conseguiu tocar?

    0 Tocaram 0 Ainda não

    Grave um vídeo tocando Agarrada Em Mim e nos envie!

    00:00 / 00:00

    Cifra Club Pro

    Aproveite o Cifra Club com benefícios exclusivos e sem anúncios
    Cifra Club Pro
    Aproveite o Cifra Club com benefícios exclusivos e sem anúncios
    OK