Cifra Club

Aprenda

Barco À Deriva

Trio Para Amar

Cifra: Principal (violão e guitarra)
Tom: D
Solo da Intro:( D F#m G A ) 2x

   D            F#m      G      A            D
E|-------------------------------------------------------
B|--------5/7----2-------------3-2-2--2-3-5-5/7----------
G|-------------------2---2h4-----------------------------
D|-----5---------2---------------------------------------
A|-------------------------------------------------------
E|-------------------------------------------------------   

            F#m      G           A            D
E|------------------------------------------------------
B|-----5/7----2-----------------2-2h3p2---2--5-3--------
G|---------------2---2h4-4/6\4----------3---------------
D|--5---------2-----------------------------------------
A|------------------------------------------------------
E|------------------------------------------------------

  D     F#m G           
Sozinho       
e|--2-3-5--5/7-5---3-2--2h3p2------
B|-----------------------------3---
     A         D     F#m G
Eu estou tão sozinho
e|--2-3-5--5/7-5---3-2--2h3p2-------10--
B|-----------------------------3/9------
     A          D    
Sem amor, sem carinho
                    F#m G
Sem ninguém pra me amar
         A         D          F#m G A
Feito um barco à deriva no oceano
   D     F#m G
Me sinto e|--2-3-5--5/7-5---3-2--2h3p2------
         B|-----------------------------3---

       A           D  F#m G
Como a noite sem luar e|--2-3-5--5/7-5---3-2--2h3p2-------10--
                      B|-----------------------------3/9------

         A         D      Bm  G
Feito um rio procurando o mar
       A          D          Bm   G
O meu corpo nesse frio se reclama
   A        D             Bm    G
Eu rolo na cama a noite inteira
       A        D   Bm  G
Não consigo dormir
      A         D         Bm   G
A saudade é bandida, é ardeira
     A        D   
O remédio é sair
        Bm      G
Oh, oh, oh, oh, oh

Refrão:
      A       D         Bm   G
Vou sair por aí na madrugada
     A         D         Bm    G
Já é tarde a cidade está calma
      A        D    (quando bate o "D",já começa o solo)
Vou sair da rotina...

   D            F#m      G      A            D
E|-------------------------------------------------------
B|--------5/7----2-------------3-2-2--2-3-5-5/7----------
G|-------------------2---2h4-----------------------------
D|-----5---------2---------------------------------------
A|-------------------------------------------------------
E|-------------------------------------------------------   

            F#m      G           A            D
E|------------------------------------------------------
B|-----5/7----2-----------------2-2h3p2---2--5-3--------
G|---------------2---2h4-4/6\4---------3----------------
D|--5---------2-----------------------------------------
A|------------------------------------------------------
E|------------------------------------------------------

   D                    F#m       G
Me sinto  e|--2-3-5--5/7-5---3-2--2h3p2-------10--
          B|----------------------------------3/9------

       A           D                F#m      G
Como a noite sem luar e|--2-3-5--5/7-5---3-2--2h3p2-------10--
                      B|-----------------------------3/9------

         A         D      Bm  G
Feito um rio procurando o mar
       A          D          Bm   G
O meu corpo nesse frio se reclama
   A        D             Bm    G
Eu rolo na cama a noite inteira
       A        D   Bm  G
Não consigo dormir
      A         D         Bm   G
A saudade é bandida, é ardeira
     A        D   
O remédio é sair
        Bm      G
Oh, oh, oh, oh, oh

Refrão:
      A       D         Bm   G
Vou sair por aí na madrugada
     A         D         Bm    G
Já é tarde a cidade está calma
      A        D    Bm    G
Vou sair da rotina
      A        D    Bm    G
Vou sair da rotina
      A        D    
Vou sair da rotina...
Composição de Chirley Camargo
Colaboração e revisão:
  • Charles Pinto
3.353 exibições
    • ½ Tom
    • A
    • Bb
    • B
    • C
    • Db
    • D
    • Eb
    • E
    • F
    • F#
    • G
    • Ab
  • Adicionar à lista

    0 comentários

    Mostrar mais comentários

    Conseguiu tocar?

    0 Tocaram 0 Ainda não

    Grave um vídeo tocando Barco À Deriva e mande pra gente!

    00:00 / 00:00
    outros vídeos desta música
    repetir qualidade Automático
    Outros vídeos desta música
    00:00 / 00:00
    Automático

    Cifra Club Pro

    Aproveite o Cifra Club com benefícios exclusivos e sem anúncios
    7 dias grátis
    Cifra Club Pro
    Aproveite o Cifra Club com benefícios exclusivos e sem anúncios
    7 dias grátis
    OK