Cifra Club

Ela É Demais

Trio Para Amar

Cifra: Principal (violão e guitarra)
tom: F
Intro.:
             F           Dm       Bb       C                     F         
e|------------------------------------6-6--6--5--------------------| 
B|---------------------5-5h6-6-5----------------8-6--5-------------|   
G|-------------3-5-5-7----------5-5h7------------------7-5-3-------| 
D|-------3-5-7-----------------------------------------------7-5-3-|
A|-3-5-7-----------------------------------------------------------|
E|-----------------------------------------------------------------|

                              Dm       Bb              C
e|---------------------8--10--8--13-12-1210-10-108-8-86-6-6--------|
B|------------5-6-8s10--10-----------------------------------------| 
G|-----3-5-7-------------------------------------------------------|
D|-5-7-------------------------------------------------------------|
A|-----------------------------------------------------------------|
E|-----------------------------------------------------------------|
         C        F
e|-5h6p5---|------8------------------------------------------------|
B|-------8-|-------------------------------------------------------|
G|---------|--9h10-------------------------------------------------|
D|---------|-------------------------------------------------------|
A|---------|-------------------------------------------------------|
E|---------|-------------------------------------------------------|
                      
 
F                                        Dm    
 Ela tem um jeito lindo de me olhar nos olhos
                 Bb
 Me despertando sonhos
               C  Bb C
 Loucuras de amor
F                                    Dm   
 Ela tem um jeito doce de tocar meu corpo
               Bb
 Que me deixa louco
                C Bb C
 Um louco sonhador
F                Dm            Bb
 Ela sabe me prender como ninguém
 C              F
 Tem seus mistérios
           Dm            Bb
 Sabe se fazer como ninguém
           C    Bb C
 Meu caso sério

 2 :F                Dm              Bb 
   : Uma Deusa, uma louca, uma feiticeira
 v : C         F
 e : Ela é demais
 z :F                     Dm                   Bb
 e : Quando beija a minha boca e se intrega inteira
 s :      C             F
   : Meu Deus ela é demais
 
 Introdução:
             F           Dm       Bb       C                     F         
e|------------------------------------6-6--6--5--------------------| 
B|---------------------5-5h6-6-5----------------8-6--5-------------|   
G|-------------3-5-5-7----------5-5h7------------------7-5-3-------| 
D|-------3-5-7-----------------------------------------------7-5-3-|
A|-3-5-7-----------------------------------------------------------|
E|-----------------------------------------------------------------|

                              Dm       Bb              C
e|---------------------8--10--8--13-12-1210-10-108-8-86-6-6-----|
B|------------5-6-8s10--10-----------------------------------------| 
G|-----3-5-7-------------------------------------------------------|
D|-5-7-------------------------------------------------------------|
A|-----------------------------------------------------------------|
E|-----------------------------------------------------------------|
         C        
e|-5h6p5---|
B|-------8-|
G|---------|
D|---------|
A|---------|
E|---------|
 
F                                       Dm
 Ela tem o brilho forte brilha feito estrela
             Bb                   C  Bb C
 A eu adoro vela fazendo aquele amor
F                                           Dm
 Que me enloquece me embriaga me envolve enteiro
                   Bb
 Que me faz prizioneiro
                C  Bb C
 Um louco sonhador
F                Dm            Bb 
 Ela sabe me prender como ninguém
 C            F
 Tem seus mistérios
            Dm           Bb
 Sabe se fazer como ninguém
            C   Bb C
 Meu caso sério

 4 :F                Dm              Bb
   : Uma Deusa, uma louca, uma feiticeira
 v : C         F
 e : Ela é demais
 z :F                     Dm                  Bb
 e : Quando beija a minha boca e se intrega inteira
 s :      C             F   
   : Meu Deus ela é demais.

 Final:
              F              Dm     C      F 
e|---------------------------------------------------------|         
B|-------------------------5-5h6--6--------1---1-----------|    
G|--------------3--5-5--7-----------5-3-0--0h2-0h2---------|
D|-------3-5-7---------------------------------------------|
A|-3-5-7---------------------------------------------------|
E|---------------------------------------------------------|
00:00 / 00:00
Outros vídeos desta música
Repetir
Outros vídeos desta música
Compositor não encontrado.
Colaboração e revisão:
  • Charles Pinto
1.155 exibições
    • ½ Tom
    • A
    • Bb
    • B
    • C
    • Db
    • D
    • Eb
    • E
    • F
    • F#
    • G
    • Ab
  • Adicionar à lista

    0 comentários

    Ver todos os comentários

    Conseguiu tocar?

    0 Tocaram 0 Ainda não

    Grave um vídeo tocando Ela É Demais e nos envie!

    00:00 / 00:00

    Cifra Club Pro

    Aproveite o Cifra Club com benefícios exclusivos e sem anúncios
    Cifra Club Pro
    Aproveite o Cifra Club com benefícios exclusivos e sem anúncios
    OK