Indiferença no Amor - Solo

Trio Para Amar

Composição de: Chirley Camargo
tom: E
          
                       Rápido                   
Intro.: E A B7 C#m A (A G#m F#m) B7 E A E A E

  E         A             B              C#m                A
E|--777-5-4---|---7/9-7-5---|--7-9-11-11/12--121212-11-12-7h9---
B|----------5-|-5---------7-|7----------------------------------
G|------------|-------------|-----------------------------------

          A    G#m        F#m              B7
E|--7/9-999--777----5-4-4h5---5555-7-7/9--------
B|----------------------------------------9-7---
G|----------------------------------------------

              
E|----------------------------------5-4---------
B|--5-4-5--7-7/9-7---5-4-5-7-7/9-7------5-------
G|----------------------------------------------

      E                            B
Toda vez que eu chego aqui na sua casa
        C#m                  A           E        B
Você inventa uma saída e disfarça, e me deixa só
      E                              B
Toda vez que eu te proucuro é um problema 
        C#m                         A           E        F#m
Sempre que eu chego aqui vejo essa cena, de me deixar só
              C#m                  G#m
Tudo está diferente, o seu olhar mudou 
                A                       E               
Assim tão de repente a indiferença no amor
               F#m               B7                    E  A
Sempre foge de mi, me deixando assim sem saber que eu sou 

Refrão:
   E                    B      C#m                  A
Assim não dá pra continuar, você não quer mais me amar
       E                  B       C#m               A
Sou igual a andorinha à voar, sou barco à deiva no mar
          E                F#m               B7    A         E
Parece a noite sem luar, assim sou eu aqui sozinho à te esperar...

Solo:   E A B7 C#m A (A G#m F#m) B7 E A E A E

  E         A             B              C#m                A
E|--777-5-4---|---7/9-7-5---|--7-9-11-11/12--121212-11-12-7h9---
B|----------5-|-5---------7-|7----------------------------------
G|------------|-------------|-----------------------------------

          A    G#m        F#m              B7
E|--7/9-999--777----5-4-4h5---5555-7-7/9--------
B|----------------------------------------9-7---
G|----------------------------------------------
              
E|----------------------------------5-4---------
B|--5-4-5--7-7/9-7---5-4-5-7-7/9-7------5-------
G|----------------------------------------------

      E                              B
Toda vez que eu te proucuro é um problema 
        C#m                         A           E        F#m
Sempre que eu chego aqui vejo essa cena, de me deixar só
              C#m                  G#m
Tudo está diferente, o seu olhar mudou 
                A                       E               
Assim tão de repente a indiferença no amor
               F#m               B7                    E  A
Sempre foge de mi, me deixando assim sem saber que eu sou 

Refrão: 2x

   E                    B      C#m                  A
Assim não dá pra continuar, você não quer mais me amar
       E                  B       C#m               A
Sou igual a andorinha à voar, sou barco à deiva no mar
          E                F#m               B7    A         E
Parece a noite sem luar, assim sou eu aqui sozinho à te esperar...
Página 1 / 1

Letras e título
Acordes e artista

resetar configurações
OK