Cifra Club

As Andorinhas

Trio Parada Dura

Cifra: Principal
exibições 410.418
Tom: A
[Intro]
                                       E


E|--------|-----------------2---------|--------------------|-----------------0----2----|
B|--------|-------------2--------3----|-5------------------|-------------0-------------|
G|--------|---------2-------2---------|-------1---2----3---|-4-------1-------1----2----|
D|--------|-----2----------------4----|-6-----2---4----5---|-6---2---------------------|
A|--------|---------------------------|--------------------|---------------------------|
E|--------|---------------------------|--------------------|---------------------------|


   A                                         E
E|-------------|-----------------2---------|-------------------------------|--------------------------------|
B|-2-----------|-------------2--------3----|-5----3----2----5----3----2----|-5----3----2----3-------0-------|
G|-------2-----|---------2-------2---------|-------------------------------|--------------------------------|
D|-2-----------|-----2----------------4----|-6----4----2----6----4----2----|-6----4----2----4-------0-------|
A|-------4-----|---------------------------|-------------------------------|--------------------------------|
E|-------------|---------------------------|-------------------------------|--------------------------------|


   A
E|-----------------------------|--------|--------|--------|--------|--------|--------|
B|-------------5---3---7---5---|--------|--------|--------|--------|--------|--------|
G|-2-----6--7--6---4---7---6---|-6------|--------|--------|--------|--------|--------|
D|-----------------------------|-7------|--------|--------|--------|--------|--------|
A|-4---------------------------|--------|--------|--------|--------|--------|--------|
E|-----------------------------|--------|--------|--------|--------|--------|--------|


                  E
As andorinhas voltaram
                A
E eu também voltei
                 E
Pousar no velho ninho
                    A
Que um dia aqui deixei

               E
Nós somos andorinhas
                                 A
Que vão e que vem a procura de amor
                   E
As vezes volta cansada, ferida machucada
               D
Mas volta pra casa
             E                A
Batendo suas asas com grande dor

             E
Igual a andorinha, eu parti sonhando
                 A
Mas foi tudo em vão
                  E
Voltei sem felicidade porque na verdade
         D            E
Uma andorinha voando sozinha
         A
Não faz verão
Acordes para:

    0 comentários

      mostrar mais comentários

      Conseguiu tocar?

      39tocaram2ainda não

      Grave um vídeo tocando As Andorinhas e mande pra gente!

      00:00 / 00:00
      outros vídeos desta música
      repetirqualidadeautomática
      Outro vídeos desta música
        00:00 / 00:00
        automática
        OK