Cifra Club

Escolhido Dele

Trio R3

Cifra: Principal (violão e guitarra)
tom: D
[Intro] A  F#m  Bm  D/A  G  E4  E

E|-----------------------------------------|
B|-----------------------------------------|
G|----6-----7-----9----6--------6~---------|
D|--------------------------9--------------|
A|-----------------------------------------|
E|-----------------------------------------|

E|-----------------------------------------|
B|---------------------------------9----7~-|
G|----6-----7-----9----6-----9-------------|
D|-----------------------------------------|
A|-----------------------------------------|
E|-----------------------------------------|

E|-----------------------------------------|
B|-----------------------------------------|
G|----7/6/7-------------7/6/7--------------|
D|--------------9/10-------------9/10------|
A|-----------------------------------------|
E|-----------------------------------------|

E|------------------------------------12~--|
B|------12----14----15----12----10---------|
G|-----------------------------------------|
D|-----------------------------------------|
A|-----------------------------------------|
E|-----------------------------------------|

A                     F#m
Quem me vê louvando a Deus
A                 Bm
Não sabe o que eu passei
A     F#m              Bm         E
Nem o que eu enfrentei pra chegar aqui

E                     Bm
Quem me vê louvando a Deus
Bm              E
Não dá pra imaginar
        E4         E
O que tenho que renunciar
            A
Só por ser fiel

        Em              A  A/C#
Não é fácil suportar as lutas
                        D            Dm
Que vem de repente pra me derrubar
  A                F#m
Só que Deus é meu amigo
     Bm             E         A   D  E  A
E nas lutas prometeu estar comigo

E              A
Pode vir o que for, levantar quem quiser
       F#m
Eu vou continuar permanecer de pé
                 D              Bm
Pode o mar se erguer, o gigante afrontar
            E          D    E
Eu vou continuar, eu vou continuar

            A
Se a tentação vier e o mal se agigantar
              F#m
Eu vou partir pra briga
                                  Bm
Eu não vou recuar pois quem está comigo
              E            A
É maior que tudo é Deus Jeová

             Bm               E
Eu não estou aqui porque o mundo quer
                  A
Foi Deus quem me escolheu
               F#m
Ache ruim quem quiser
          F#m   E              D
Os inimigos querem me ver abatido
          A
Mas não vai adiantar
                  Bm               E
Pode entulhar meus poços pra minha frustração
                A                  F#m
Podem até me prenderem me jogar na prisão
           D      E
Mas sei a quem eu sirvo
                           E      A
E que no tempo certo me fará campeão

              E              D
Eu sou filho Dele, sirvo só a Ele
            A
Eu canto pra Ele, adoro só a Ele
           E               D
Eu exalto a Ele, glorifico a Ele
               A
Me alegro com Ele, sou somente dele

      E
É só dele, só por Ele, para Ele
D                 A
Só com Ele, é só dele
Só vem dele, só tem Ele, tudo é dele
        E
Eu sou dele, tu és dele
            D
A igreja é Dele, o mundo é Dele
                 A
Tudo que existe aqui pertence a Ele
      D                  Dm
Que o mundo me apedreje, me despreze
                   A
Não me aceite, que não queira aceitar
F#m
Que eu sou filho de Jeová
Bm
Eu não vou tá nem aí
          E             A
Porque eu sou escolhido Dele

[Solo]

E|-----------------------------------------|
B|----------------------------------7 -----|
G|-----7----6----7----9----7----9----------|
D|-----------------------------------------|
A|-----------------------------------------|
E|-----------------------------------------|

E|-----------------------------------------|
B|--------7----9-------10~~----------------|
G|---9-------------------------------------|
D|-----------------------------------------|
A|-----------------------------------------|
E|-----------------------------------------|

              E              D
Você é filho Dele, serve só a Ele
             A
Canta só pra Ele, adora só a Ele
           E               D
Exalta só a Ele, glorifica a Ele
               A
Se alegra com Ele, és somente Dele
              E              D
É só Dele, só por Ele, para Ele
             A
Só com Ele, é só Dele, só vem Dele
                             E
Só tem Ele, tudo é Dele, eu sou Dele
              D
Tu és Dele, a igreja é Dele
                      A
O mundo é Dele, tudo que existe aqui pertence a Ele

           D             Dm
Que o mundo te apedreje, te despreze
                          A
Não te aceite, que não queira aceitar
F#m
Que és filho de Jeová
Bm
Você não vai se importar
          E            A
Porque tu és escolhido Dele

           D             Dm
Que o mundo te apedreje, te despreze
                          A
Não te aceite, que não queira aceitar
F#m
Que és filho de Jeová
Bm
Você não vai se importar
          E            D9
Porque tu és escolhido Dele

   F     G        A9
Você é, escolhido Dele
00:00 / 00:00
Outros vídeos desta música
Repetir
Outros vídeos desta música
Composição de Cláudio Louvor
Colaboração e revisão:
  • Tarcibeli Tonholo
  • Gabriel Alves
4.230 exibições
    • ½ Tom
    • A
    • Bb
    • B
    • C
    • Db
    • D
    • Eb
    • E
    • F
    • F#
    • G
    • Ab
  • Adicionar à lista

    0 comentários

    Ver todos os comentários

    Entre para oCifra Club PRO

    Tenha acesso a benefícios exclusivos no App e no Site

    • Chega de anúncios

    • Prioridade de compra em lançamentos

    • Mais recursos no app do Afinador

    • Atendimento Prioritário

    • Descontos nos produtos Cifra Club

    • Ajude a produzir mais conteúdo

    00:00 / 00:00

    Cifra Club Pro

    Aproveite o Cifra Club com benefícios exclusivos e sem anúncios
    Cifra Club Pro
    Aproveite o Cifra Club com benefícios exclusivos e sem anúncios
    OK