Cifra Club

I Hate Kissing You Good Bye

Tuff

Cifra: Principal (violão e guitarra)
tom: G
Intro 2x:
    D         C9       G        G/Bb
E|----2-3--------3--------3--------3-----------|
B|---3---3------3-3------3-3------3-3----------|
G|--2-----2----0---0----0---0----0---0---------|
D|-0-------0--2-----2--0-----0--0-----0--------|    Tocar tambem durante todos os versos
A|-----------3--------2--------1---------------|
E|---------------------------------------------|

Verso:
D     C9                   G             G/Bb
Baby, Times are changing I see it in your eyes
D                 C9             G              G/Bb
So why do we keep on pretending, why do we even try

D                   C9
My heart is like an open book
          G                G/Bb
Won't you read between the lines

E|---------------------------------------------|
B|---------------------------------------------|
G|---------------------------------------------|
D|-----------2---------------------------------|
A|-0-2-3-5-3-----------------------------------|
E|---------------------------------------------|

Ponte:
    C                       G
And show me, show me, show me everything's alright

Refrão:
D      C               G
I hate kissing you goodbye, whoa ohh oh ooooh
               D              C
I've heard it all before, and I know for sure
      G
That it won't heal with time, Baby
D      C           G
I hate kissing you, kissing you goodbye, whoa whoa yeah

(Intro)

Verso:
D          C9                    G             G/Bb
Maybe, the things we shared were never meant to be
D                  C9                     G             G/Bb
Our love is like a heart attack, and it's slowly killing me, yeah

D                    C9
If you can taste the pain I know or
    G             G/Bb
The way I feel inside

E|---------------------------------------------|
B|---------------------------------------------|
G|---------------------------------------------|
D|-----------2---------------------------------|
A|-0-2-3-5-3-----------------------------------|
E|---------------------------------------------|

(Ponte)

     C                 G
Then show me, show me, show me everything's alright

Refrão:
D      C               G
I hate kissing you goodbye, whoa ohh oh ooooh
               D               C
I've heard it all before, and I know for sure
     G
That it won't heal with time, (it won't heal with time)
               D         C             G
No matter what I do, or what I say, no matter how I try, Baby
D      C           G
I hate kissing you, kissing you goodbye, whoa whoa yeah

Solo: D  C  G

     C                                G
Then show me, show me, come on show me

Everything's alright, mmmm

   D                  C9               G            G/Bb
E|-------2-3-2-0-------------3--------3------------3---|
B|-----3---------3---------3---3------3------------3---|
G|---2-------------------0-------0----0------------0---|
D|-0-------------------2-----------2--0------------0---|
A|-------------------3----------------2------------2---|
E|------------------------------------3----------------|

Final:
D      C               G
I hate kissing you goodbye
D      C               G
I hate kissing you goodbye
                    D         C            G
I never, ever, ever wanted to kiss you goodbye, whoa oh oh
D               C              G
I hate (I hate) kissing you goodbye, Baby-baby
D               C              G
I hate (I hate) kissing you goodbye, (oh-oh-oh) you know I never wanted to
D               C              G
I hate (I hate) kissing you goodbye, bye-bye-bye
D                C             G
Bye-bye, (my-my) miss american pie, whoa oh ohh
D                C         G
I hate (I hate) kissing you goodbye,
Compositor não encontrado.
Colaboração e revisão:
  • Gabriel Carvalho
  • carlos henrique
734 exibições
    • ½ Tom
    • A
    • Bb
    • B
    • C
    • Db
    • D
    • Eb
    • E
    • F
    • F#
    • G
    • Ab
  • Adicionar à lista

    0 comentários

    Ver todos os comentários

    Conseguiu tocar?

    0 Tocaram 0 Ainda não

    Grave um vídeo tocando I Hate Kissing You Good Bye e nos envie!

    00:00 / 00:00
    Outros vídeos desta música
    Repetir Qualidade Automático
    Outros vídeos desta música
    00:00 / 00:00
    Automático

    Cifra Club Pro

    Aproveite o Cifra Club com benefícios exclusivos e sem anúncios
    Cifra Club Pro
    Aproveite o Cifra Club com benefícios exclusivos e sem anúncios
    OK