Jumpsuit

Twenty One Pilots

Composição: Tyler Joseph
Tom: Bm
[Intro] Bm  F#m  Bm  F#m
        Bm  F#m  Bm  F#m

E|----------------------------------------------------|
B|----------------------------------------------------|
G|----------------------------------------------------|
D|----------------------------------------------------|
A|----------------------------------------------------|
E|-10/7--7-7-7--10/2--2-2----7-7-5h7-7-7/12-14-14-----|

E|----------------------------------------------------|
B|----------------------------------------------------|
G|----------------------------------------------------|
D|----------------------------------------------------|
A|----------------------------------------------------|
E|-10/7--7-7-7--10/2--2-2----7-7-5h7-7-7/12-14-14-----|

   G                 F#m
I can't believe how much I hate
  Bm                      D
Pressures of a new place roll my way
 G                        F#m
Jumpsuit, jumpsuit cover me
 Bm                       D
Jumpsuit, jumpsuit cover me

    G                     F#m
I crumble underneath the weight
  Bm                      D
Pressures of a new place roll my way
 G                        F#m
Jumpsuit, jumpsuit cover me
 Bm                       D
Jumpsuit, jumpsuit cover me

( Bm  F#m  Bm  F#m )
( Bm  F#m  Bm  F#m )

E|----------------------------------------------------|
B|----------------------------------------------------|
G|----------------------------------------------------|
D|----------------------------------------------------|
A|----------------------------------------------------|
E|-10/7--7-7-7--10/2--2-2----7-7-5h7-7-7/14-14-14-----|

E|----------------------------------------------------|
B|----------------------------------------------------|
G|----------------------------------------------------|
D|----------------------------------------------------|
A|----------------------------------------------------|
E|-10/7--7-7-7--10/2--2-2----7-7-5h7-7-7/14-14-14-----|

  G                    F#m
Spirits in my room, friend or foe?
 Bm                   D
Felt it in my youth, feel it when I'm old
 D   Bm    D   Bm
Jumpsuit, jumpsuit cover me
                D   Bm
Dusting off my jumpsuit

   G                 F#m
I can't believe how much I hate
  Bm                      D
Pressures of a new place roll my way
 G                        F#m
Jumpsuit, jumpsuit cover me
 Bm                       D
Jumpsuit, jumpsuit cover me

D               D9
I'll be right there
                     Em                F#m           G
But you'll have to grab my throat and lift me in the air
               D
If you need anyone

               D9
I'll stop my plans
                    Em               F#m               G
But you'll have to tie me down and then break both my hands
               D
If you need anyone

D               D9
I'll be right there
                     Em                F#m           G
But you'll have to grab my throat and lift me in the air
               G
If you need anyone
               Bm
If you need anyone (if you need anyone)
               G
If you need anyone (if you need anyone)
               Bm
If you need anyone

   G                 F#m
I can't believe how much I hate
  Bm                      D
Pressures of a new place roll my way
 G                        F#m
Jumpsuit, jumpsuit cover me
 Bm                       D
Jumpsuit, jumpsuit cover me

( Bm  F#m  Bm  F#m )

E|----------------------------------------------------|
B|----------------------------------------------------|
G|----------------------------------------------------|
D|----------------------------------------------------|
A|----------------------------------------------------|
E|-10/7--7-7-7--10/2--2-2----7-7-5h7-7-7/12-14-14-----|

Jumpsuit, jumpsuit cover me

Jumpsuit, jumpsuit cover me
Página 1 / 1

Letras e título
Acordes e artista

resetar configurações
OK