Cifra Club

Aprenda

horror-teria

Twisted Sister

Tab de baixo: Principal
G|--------|--------|--------|--------|--------|--------|--------|--------|
D|--------|--------|--------|--------|--------|--------|--------|--------|
A|--------|--------|--------|--------|--------|--------|--------|--------|
E|--0--0--|--0--0--|--0--0--|--0--0--|--0--0--|--0--0--|--0--0--|--0--0--|

|-----------------|-----------------|--------------|---------------------|-----------------|-----------------|
|*----------------|-----------------|--------------|---------------------|-----------------|-----------------|
|*----------------|-----------------|--------------|------------------5--|-----------------|-----------------|
|--0---0---0---0--|--0---0---0---0--|--0--0--3--2--|--0--0--3--0--3------|--0---0---0---0--|--0---0---0---0--|

   girls                                make...           place...
   see                                  you'll...         sure...
   play                                 you...            your...
|--------------|---------------------|-----------------|---------------------|-----------------|---------------|PARA
|--------------|---------------------|-----------------|---------------------|-----------------|---------------|O CODA
|--------------|------------------5--|-----------------|---------------------|-----------------|---------------|
|--0--0--3--2--|--0--0--3--0--3------|--5---5---5---5--|--5---5---5---3---4--|--5---5---5---5--|--5---5--6--7--|

|--------|--------|--------|--------|-----------------|--------------------|-----------------|--------------------|
|--------|--------|--------|-------*|-----------------|--------------------|-----------------|--------------------|
|--------|--------|--------|-------*|-----------------|--------------------|-----------------|--------------------|
|--0--0--|--0--0--|--0--0--|--0--0--|--5---5---5---5--|--5---5---5---3--4--|--5---5---5---5--|--5---5---5---3--4--|

|-----------------|--------------------|-----------------|-----------------|--------|--------|--------|--------|
|-----------------|--------------------|-----------------|-----------------|--------|--------|--------|--------|
|-----------------|--------------------|-----------------|-----------------|--------|--------|--------|--------|
|--5---5---5---5--|--5---5---5---3--4--|--5---5---5---5--|--5---5---6---7--|--0--0--|--0--0--|--0--0--|--0--0--|

CODA
|--------|--------|--------|--------|--------|--------|--------|--------|--------|--------|
|--------|--------|--------|--------|--------|--------|--------|--------|--------|--------|
|--------|--------|--------|--------|--------|--------|--------|--------|--------|--------|
|--0--0--|--0--0--|--0--0--|--0--0--|--0--0--|--0--0--|--0--0--|--0--0--|--0--0--|--0--0--|

|-----|-----|-----|-----|-----|-----|-----|-----|-----|-----|-----|-----|-----|-----|-----|
|-----|-----|-----|-----|-----|-----|-----|-----|-----|-----|-----|-----|-----|-----|-----|
|-----|-----|-----|-----|-----|-----|-----|-----|-----|-----|-----|-----|-----|-----|-----|
|-----|-----|-----|-----|-----|-----|-----|-----|-----|-----|-----|-----|-----|-----|-----|

|-----|-----|-----|-----|-----|-----|-----|-----|-----|--------------------------|--------------------------|
|-----|-----|-----|-----|-----|-----|-----|-----|-----|--------------------------|--------------------------|
|-----|-----|-----|-----|-----|-----|-----|-----|-----|--------------------------|--------------------------|
|-----|-----|-----|-----|-----|-----|-----|-----|-----|--3--3--3--3--3--3--3--3--|--3--3--3--3--3--3--3--3--|

|--------------------------|--------------------------|--------------------------|--------------------------|
|--------------------------|--------------------------|--------------------------|--------------------------|
|--0--0--0--0--0--0--0--0--|--0--0--0--0--0--0--0--0--|--1--1--1--1--1--1--1--1--|--1--1--1--1--1--1--1--1--|
|--------------------------|--------------------------|--------------------------|--------------------------|

|--------------------------|--------------------------|
|--------------------------|--------------------------|
|--0--0--0--0--0--0--0--0--|--0--0--0--0--0--0--0--0--|
|--------------------------|--------------------------|

           the man's...                                                   did...
           the man...                                                     before...
           the mob...                                                     smoke...
|---------------------------------|---------------------------------|--------------------------|
|*--------------------------------|---------------------------------|--------------------------|
|*--------------------------------|---------------------------------|--0--0--0--0--0--0--0--0--|
|--3---3---3---3---3---3---3---3--|--3---3---3---3---3---3---3---3--|--------------------------|

                                 a local...
                                 who had...
                                 and marched...
|--------------------------|--------------------------|--------------------------|--------------------------|
|--------------------------|--------------------------|--------------------------|--------------------------|
|--0--0--0--0--0--0--0--0--|--1--1--1--1--1--1--1--1--|--1--1--1--1--1--1--1--1--|--0--0--0--0--0--0--0--0--|
|--------------------------|--------------------------|--------------------------|--------------------------|

                              those...
                              his...
                              to bring...
|--------------------------|--------------------------|--------------------------|--------------------------|
|--------------------------|--------------------------|--------------------------|--------------------------|
|--0--0--0--0--0--0--0--0--|--------------------------|--------------------------|--0--0--0--0--0--0--0--0--|
|--------------------------|--3--3--3--3--3--3--3--3--|--3--3--3--3--3--3--3--3--|--------------------------|

                              with...                                               and...
                              and off...                                            technical...
                              and show...                                           what...
|--------------------------|--------------------------|--------------------------|--------------------------|
|--------------------------|--------------------------|--------------------------|--------------------------|
|--0--0--0--0--0--0--0--0--|--1--1--1--1--1--1--1--1--|--1--1--1--1--1--1--1--1--|--0--0--0--0--0--0--0--0--|
|--------------------------|--------------------------|--------------------------|--------------------------|

|--------------------------|---------|-------------|---------|-------------|---------|---------|---------|
|--------------------------|---------|-------------|---------|-------------|---------|---------|---------|
|--0--0--0--0--0--0--0--0--|--1---1--|--1---1---1--|--3---3--|--1---0---1--|---------|--0---0--|--1---1--|
|--------------------------|---------|-------------|---------|-------------|--3---3--|---------|---------|

|--------------|---------|---------|---------|--------------|--------------------------|--------------------------|
|--------------|---------|---------|---------|-------------*|--------------------------|--------------------------|
|--0--1--0--1--|---------|--0---0--|--1---1--|--0--1--0--1-*|--------------------------|--------------------------|
|--------------|--3---3--|---------|---------|--------------|--3--3--3--3--3--3--3--3--|--3--3--3--3--3--3--3--3--|

|--------------------------|--------------------------|--------------------------|--------------------------|
|--------------------------|--------------------------|--------------------------|--------------------------|
|--0--0--0--0--0--0--0--0--|--0--0--0--0--0--0--0--0--|--1--1--1--1--1--1--1--1--|--1--1--1--1--1--1--1--1--|
|--------------------------|--------------------------|--------------------------|--------------------------|

|--------------------------|--------------------------|-----------------------------|-----------------------------|
|--------------------------|--------------------------|-----------------------------|-----------------------------|
|--0--0--0--0--0--0--0--0--|--0--0--0--0--0--0--0--0--|-----------------------------|-----------------------------|
|--------------------------|--------------------------|--3---3--3--3---3--3--3---3--|--3---3--3--3---3--3--3---3--|

|--------------------------|--------------------------|-----------------------------|-----------------------------|
|--------------------------|--------------------------|-----------------------------|-----------------------------|
|--0--0--0--0--0--0--0--0--|--0--0--0--0--0--0--0--0--|--1---1--1--1---1--1--1---1--|--1---1--1--1---1--1--1---1--|
|--------------------------|--------------------------|-----------------------------|-----------------------------|

|---------|-------------|
|---------|-------------|
|--0---0--|--0---0---0--|
|---------|-------------|

CODA
   justice
|---------|
|---------|
|---------|
|--3---3--|

|---------|---------|--------------|---------|---------|--------------|---------|---------|--------------|
|---------|---------|--------------|---------|---------|--------------|---------|---------|--------------|
|--0---0--|--1---1--|--0--1--0--1--|--0---0--|--1---1--|--0--1--0--1--|--0---0--|--1---1--|--0--1--0--1--|
|---------|---------|--------------|---------|---------|--------------|---------|---------|--------------|

|---------|---------|--------------|---------|---------|--------------|---------|---------|--------------|
|---------|---------|--------------|---------|---------|--------------|---------|---------|--------------|
|--0---0--|--1---1--|--0--1--0--1--|--0---0--|--1---1--|--0--1--0--1--|--0---0--|--1---1--|--0--1--0--1--|
|---------|---------|--------------|---------|---------|--------------|---------|---------|--------------|

|---------|---------|--------------|---------|---------|--------------|---------|---------|--------------|
|---------|---------|--------------|---------|---------|--------------|---------|---------|--------------|
|--0---0--|--1---1--|--0--1--0--1--|--0---0--|--1---1--|--0--1--0--1--|--0---0--|--1---1--|--0--1--0--1--|
|---------|---------|--------------|---------|---------|--------------|---------|---------|--------------|

|---------|---------|--------------|---------|---------|--------------|---------|---------|--------------|
|---------|---------|--------------|---------|---------|--------------|---------|---------|--------------|
|--0---0--|--1---1--|--0--1--0--1--|--0---0--|--1---1--|--0--1--0--1--|--0---0--|--1---1--|--0--1--0--1--|
|---------|---------|--------------|---------|---------|--------------|---------|---------|--------------|
Composição de Snider
Colaboração e revisão:
  • valdir júnior
249 exibições

0 comentários

Mostrar mais comentários

Conseguiu tocar?

0 Tocaram 0 Ainda não

Grave um vídeo tocando horror-teria e mande pra gente!

00:00 / 00:00
outros vídeos desta música
repetir qualidade Automático
Outros vídeos desta música
00:00 / 00:00
Automático

Cifra Club Pro

Aproveite o Cifra Club com benefícios exclusivos e sem anúncios
7 dias grátis
Cifra Club Pro
Aproveite o Cifra Club com benefícios exclusivos e sem anúncios
7 dias grátis
OK