I Wanna Rock

Twisted Sister

Composição: Dee Snider
Tom: G
I wanna rock!
E|-----------------------------------------------------------------------|
B|-----------------------------------------------------------------------|
G|-----------------------------------------------------------9-5---------|
D|--7---5-5-5-5--12-12-12-12--2-5-7-7--5-5-5-5--12-12-12-12--9-5-7-------|2 vezes
A|--7---5-5-5-5--12-12-12-12--2-3-7-7--5-5-5-5--12-12-12-12--7-3-5-------|
E|--5---3-3-3-3--10-10-10-10--0-3-5-5--3-3-3-3--10-10-10-10------5-------|

Turn it down you say, well all I've gotta say is time and time again I say-

E|--------------------------------|
B|--------------------------------|
G|------------------7-7-----------|
D|------7----5-5----7-7-----5--7--|
A|------7----5-5----5-5-----5--7--|
E|------5----3-3------------3--5--|
No! (no!) no-no no-no no

Tell me not to play, well all I've gotta say when you tell me not to play is-

E|--------------------------|
B|--------------------------|
G|------------------7-7-----|
D|------7----5-5----7-7-----|
A|------7----5-5----5-5-----|
E|------5----3-3------------|
No! (no!) no-no no-no no

E|-----------------------------------------|
B|-----------------------------------------|
G|----7----------7-7-7-7---------------7---|
D|--5-7--5-5-5-5-7-7-7-7-5-5-5-5-5-5-5-7---|
A|--5-5--5-5-5-5-5-5-5-5-5-5---5-5-5-5-5---|
E|--3----3-3-3-3---------3-3-3-3-3-3-3-----|
      When its...

I wanna rock!

E|---------------------------------------------------------------------|
B|---------------------------------------------------------------------|
G|---------------------------------------------------------9-5---------|X 2
D|--7---5-5-5-5--12-12-12-12--2-5-7-7--5-555--12-12-12-12--9-5-7-------|
A|--7---5-5-5-5--12-12-12-12--2-3-7-7--5-555--12-12-12-12--7-3-5-------|
E|--5---3-3-3-3--10-10-10-10--0-3-5-5--3-333--10-10-10-10------5-------|

Turn the power up, I've waited for so long so I can hear my favorite song so lets-

E|------------------------------|
B|------------------------------|
G|------------------7-7---------|
D|------7----5-5----7-7-----5-7-|
A|------7----5-5----5-5-----5-7-|
E|------5----3-3------------3-5-|
Go! (go!) go-go go-go go

Tell me not to play, well all I've gotta say when you tell me not to play is-

E|--------------------------|
B|--------------------------|
G|------------------7-7-----|
D|------7----5-5----7-7-----|
A|------7----5-5----5-5-----|
E|------5----3-3------------|
Go! (go!) go-go go-go go

E|------------------------|
B|------------------------|
G|----7----------7-7-7-7---------5-5---7-|
D|--5-7--5-5-5-5-7-7-7-7-5-5-5-5-5-5-5-7-|
A|--5-5--5-5-5-5-5-5-5-5-5-5-5-5-3-3-5-5-|
E|--3----3-3-3-3---------3-3-3-3-----3---|
      When its...

I wanna rock!

E|-----------------------------------------------------------------------|
B|-----------------------------------------------------------------------|
G|-----------------------------------------------------------9-5---------|X 2
D|--7---5-5-5-5--12-12-12-12--2-5-7-7--5-5-5-5--12-12-12-12--9-5-7-------|
A|--7---5-5-5-5--12-12-12-12--2-3-7-7--5-5-5-5--12-12-12-12--7-3-5-------|
E|--5---3-3-3-3--10-10-10-10--0-3-5-5--3-3-3-3--10-10-10-10------5-------|

E|--------------------------------------------------|
B|--------------------------------------------------|
G|--------------------------------------------------|X 2
D|--7-----7-----7---2-5--7-----7-----7----9-5-------|
A|--5-----5-----5---2-3--5-----5-----5----9-5-------|
E|--5-----5-----5---0-3--5-----5-----5----7-3-------|
Rock! Rock! Rock!    Rock! Rock! Rock!

Solo:


E|--------------5---------------------------10b-10b--12-10-8--10-8--10-8----8-10-12-10-12-10-12-|
B|-8b-8b-8b-8b---8-5--5------------8-1-0-8-8----------------10-----10---10_---------------------|
G|------------------7b-7-5-7-5~--7b-------9-----------------------------------------------------|
D|------------------------7---------------------------------------------------------------------|
A|----------------------------------------------------------------------------------------------|
E|----------------------------------------------------------------------------------------------|


E|-15b-15b-10-15-12-----15-------------------------------------|
B|-----------------15-17--15-13-15-15-13--13---17---17---17----|
G|--------------------------------------14--14---20b--20b--20--|
D|-------------------------------------------------------------|
A|-------------------------------------------------------------|
E|-------------------------------------------------------------|


E|----------------------------------|
B|17-20-17--17-20---17-20b--15b-15--|
G|--------19-----19b----------------|
D|----------------------------------|
A|----------------------------------|
E|----------------------------------|


(Fill Ins)


E|------------------------------------------|
B|-13---------------------------------20----|
G|---14-----7-5-7-5-7-7b------17---19b--19b-|
D|--------------------------19--19----------|
A|------------------------------------------|
E|------------------------------------------|
Página 1 / 1

Letras e título
Acordes e artista

resetar configurações
OK