Cifra Club

Aprenda

I Wanna Rock

Twisted Sister

Cifra: Versão 3 (violão e guitarra)
Tom: G
words and music by Dee Snider
transcription by Mike C. Zalot

Intro/Chorus Pattern

                            
|-----------------------|------------------------------|
|-----------------------|------------------------------|
|-----------------------|------------------------------|
|-------7-------5-5-5-3-|-12-12-12-12-------3--5-------|
|-------7-------5-5-3-5-|-12-12-12-12-------3--5-------|
|-------5-------3-3-3-5-|-10-10-10-10-------1--3-------|
       

|-----------------------|-------------------------------|
|-----------------------|-------------------------------|
|-----------------------|------------------9----5-------|
|-------7-------5-5-5-3-|-12-12-12-12------9----5-------|
|-------7-------5-5-3-5-|-12-12-12-12------7----3-------|
|-------5-------3-3-3-5-|-10-10-10-10-------------------|
       



Verse Pattern

 A           D      G     A      G   D    A
|-----------|------------|------3-3------|---------|
|-----------|------------|------3-3-3-3--|---------|
|2----------|(2)---------|2--2--0-0-2-2--|2--------|
|2----------|(2)---------|2--2--0-0-0-0--|2--------|
|0----------|(0)---------|0--0-----------|0--------|
|-----------|------------|------3-3------|---------|
                             ^

 A           D      G     A      G   D    A
|-----------|------------|------3-3------|---------|
|-----------|------------|------3-3-3-3--|---------|
|(2)--------|(2)---------|2--2--0-0-2-2--|2--------|
|(2)--------|(2)---------|2--2--0-0-0-0--|2--------|
|(0)--------|(0)---------|0--0-----------|0--------|
|-----------|------------|------3-3------|---------|
                            ^

Pre-Chorus Pattern

 G D   G           D               G
|3-----3---3---3--|---------------|3---3---3---3--|
|3-2---3---3---3--|3---3---3---3--|3---3---3---3--|
|0-3---0---0---0--|2---2---2---2--|0---0---0---0--|
|0-0---0---0---0--|0---0---0---0--|0---0---0---0--|
|-----------------|---------------|---------------|
|3-----3---3---3--|---------------|3---3---3---3--|
 ^ ^  ^  ^  ^  ^   ^   ^   ^   ^   ^   ^   ^


 Em G  A    
|---33---------|
|---33---------|
|99-00-2-------|
|99-00-2-------|
|77----0-------|
|00-33-0-------|
 ^^ ^^ ^

Vamp Pattern

 A                            E  G 
|----------------|-----------------|
|----------------|-----------------|
|------2------2--|------2----------|
|------2------2--|------2----------|
|------0------0--|------0----------|
|----------------|------------0--3-|
       ^      ^         ^
 A                            E  C
|----------------|-----------------|
|----------------|-----------------|
|------2------2--|------2-----9--5-|
|------2------2--|------2-----9--5-|
|------0------0--|------0-----7--3-|
|----------------|-----------------|
       ^     ^         ^


Turn it down you say, well all I got to say
Is time and time again I say no-- (no!)
No,no,no,no,no
Tell me not to play, well all I got to say
When you tell me not to play I say no-- (no!)
No,no,no,no,no
So if you ask me why I like the way I play
There's only one thing I can say to you
I wanna rock-- rock!
I want to rock-- rock!
 
There's a feeling that I get from nothing else
And ain't nothing in the world that makes me go-- (go!)
Go,go,go,go,go
Turn the power up, I waited for so long 
so I can hear my favorite song, so let's go-- (go!)
Go,go,go,go,go
When it's like this I feel the music shooting through me
There's nothing else that i would rather do
Composição de Dee Snider
Colaboração e revisão:
  • Leonardo Oliveira
5.527 exibições
  • Simplificar cifra
    • ½ Tom
    • A
    • Bb
    • B
    • C
    • Db
    • D
    • Eb
    • E
    • F
    • F#
    • G
    • Ab
  • Adicionar à lista

    0 comentários

    Mostrar mais comentários

    Conseguiu tocar?

    0 Tocaram 0 Ainda não

    Grave um vídeo tocando I Wanna Rock e mande pra gente!

    00:00 / 00:00
    outros vídeos desta música
    repetir qualidade Automático
    Outros vídeos desta música
    00:00 / 00:00
    Automático

    Cifra Club Pro

    Aproveite o Cifra Club com benefícios exclusivos e sem anúncios
    7 dias grátis
    Cifra Club Pro
    Aproveite o Cifra Club com benefícios exclusivos e sem anúncios
    7 dias grátis
    OK