Cifra Club

Aprenda

I Wanna Rock

Twisted Sister

Tab de baixo: Estudio
         rock                                        rock
|-----|-------------------|-----------------------|-----------------------|-----------------------|
|-----|*------------------|-----------------------|-----------------------|----------------2------|
|-----|*------------------|--5---5--5--5----------|-----------------------|--5---5--5--5-------3--|
|-----|--5---3---3--3--3--|----------------0---3--|--5---5---3---3--3--3--|-----------------------|

|-----------------------|-----------------------|-----------------------|-----------------------|
|-----------------------|-----------------------|-----------------------|----------------2------|
|-----------------------|--5---5--5--5----------|-----------------------|--5---5--5--5-------3--|
|--5---5---3---3--3--3--|----------------0---3--|--5---5---3---3--3--3--|-----------------------|

   turn it...    but all...              no...
   there's...    from...                 go...
|-------------|-----------------------|----------------------|------------|------------|-----------------------|
|-------------|-----------------------|------7---------------|------------|------------|-----------------------|
|-------------|--5---5--5-------------|----------------5--5--|------------|------------|--5---5--5-------------|
|--5---5--5---|-------------3---3--3--|--5-------3--3--------|--5---5--5--|--5---5--5--|-------------3---3--3--|

   no...                  no                so if you...             like the...              there's...
   go...                  go                when it's...             music...                 there's...
|----------------------|-----------------|------------------------|------------------------|-----------------|
|------7---------------|-----------------|------------------------|------------------------|-----------------|
|----------------5--5--|--------------5--|--------------2--3---4--|--5---5---5-------------|-----------------|
|--5-------3--3--------|--5---5---3------|--3---3---3-------------|--------------0--1---2--|--3---3---3---3--|

   say to...            rock      rock          rock      rock
   would rather...
|--------------------|---------|-------------|---------|-------------|---------|-------------|---------|-------------|
|-------------------*|---------|-------------|---------|------2------|---------|-------------|---------|------2------|
|--3----------------*|---------|-------------|---------|----------3--|---------|-------------|---------|----------3--|
|------3---5---------|--5---5--|--5---0---3--|--5---5--|--5----------|--5---5--|--5---0---3--|--5---5--|--5----------|

   rock
|-----------------------------|-----------------------|------------------------------|
|-----------------------------|-----------------------|------------------------------|
|-----------------------------|--5---5--5--5----------|------------------------------|
|--3---3--3--3---5---5--5--5--|----------------0---3--|--5---5--5--5---3---3--3---3--|

|-----------------------|-----------------------------|-----------------------|------------------------------|
|----------------2------|-----------------------------|-----------------------|------------------------------|
|--5---5--5--5-------3--|-----------------------------|--5---5--5--5----------|------------------------------|
|-----------------------|--3---3--3--3---5---5--5--5--|----------------0---3--|--5---5--5--5---3---3--3---3--|

|-----------------------|-----------------------|-----------------------|-----------------------|
|----------------2------|------7----------------|-----------------------|------7----------------|
|--5---5--5--5-------3--|-----------------------|--5---5--5--5----------|-----------------------|
|-----------------------|--5-------3---3--3--3--|----------------0---3--|--5-------3---3--3--3--|

|-----------------------|-----------------------|-----------------------|-----------------------|
|----------------2------|------7----------------|-----------------------|------7----------------|
|--5---5--5--5-------3--|-----------------------|--5---5--5--5----------|-----------------------|
|-----------------------|--5-------3---3--3--3--|----------------0---3--|--5-------3---3--3--3--|

|-----------------------|-----------------------------|-----------------------|-----------------------------|
|----------------2------|-----------------------------|-----------------------|-----------------------------|
|--5---5--5--5-------3--|-----------------------------|--5---5--5--5----------|-----------------------------|
|-----------------------|--5---5--5--5---3---3--3--3--|----------------0---3--|--5---5--5--5---3---3--3--3--|

|-----------------------|-----------------------------|
|----------------2------|-----------------------------|
|--5---5--5--5-------3--|-----------------------------|
|-----------------------|--5---5--5--5---3---3--3--3--|
Composição de Dee Snider
Colaboração e revisão:
  • valdir júnior
304 exibições

0 comentários

Mostrar mais comentários

Conseguiu tocar?

0 Tocaram 0 Ainda não

Grave um vídeo tocando I Wanna Rock e mande pra gente!

00:00 / 00:00
outros vídeos desta música
repetir qualidade Automático
Outros vídeos desta música
00:00 / 00:00
Automático

Cifra Club Pro

Aproveite o Cifra Club com benefícios exclusivos e sem anúncios
7 dias grátis
Cifra Club Pro
Aproveite o Cifra Club com benefícios exclusivos e sem anúncios
7 dias grátis
OK