Cifra Club

Aprenda

The Beast

Twisted Sister

Tab de baixo: Principal
|--------|-------------|------------|-------------|------------|-------------|------------|
|--------|------7------|--7---------|------7------|--7---------|------7------|--7---------|
|--------|--0-------0--|------------|--0-------0--|------------|--0-------0--|------------|
|--0--3--|-------------|------0--3--|-------------|------0--3--|-------------|------0--3--|

|-------------------|-----|--------------|------------------------------------------|
|-------------------|-----|--------------|------------------------------------------|
|--0---3---2--0--0--|--2--|--3--2--------|------------------------------------------|
|-------------------|-----|--------3--5--|--5---5--5--5---5--5--5---5--5--5---5--5--|

|------------------------------------------|------------------------------------------|
|------------------------------------------|------------------------------------------|
|------------------------------------------|------------------------------------------|
|--5---5--5--5---5--5--5---5--5--5---5--5--|--5---5--5--5---5--5--5---5--5--5---5--5--|

                                              you can...
                                              you won't...
|------------------------------------------|------------------------------------------|
|------------------------------------------|*-----------------------------------------|
|------------------------------------------|*-----------------------------------------|
|--5---5--5--5---5--5--5---5--5--5---5--5--|--5---5--5--5---5--5--5---5--5--5---5--5--|

   long...                                    but you...
   coming...                                  moving...
|------------------------------------------|------------------------------------------|
|------------------------------------------|------------------------------------------|
|------------------------------------------|------------------------------------------|
|--5---5--5--5---5--5--5---5--5--5---5--5--|--5---5--5--5---5--5--5---5--5--5---5--5--|

|------------------------------------------|------------------------------------------|
|------------------------------------------|------------------------------------------|
|------------------------------------------|------------------------------------------|
|--5---5--5--5---5--5--5---5--5--5---5--5--|--5---5--5--5---5--5--5---5--5--5---5--5--|

|------------------------------------------|------------------------------------------|
|------------------------------------------|------------------------------------------|
|------------------------------------------|------------------------------------------|
|--5---5--5--5---5--5--5---5--5--5---5--5--|--5---5--5--5---5--5--5---5--5--5---5--5--|

                                            you'd...
                                            what...
|------------------------------------|------------------------------------------|
|------------------------------------|------------------------------------------|
|---------------------------------2--|--3---3--3--3---3--3----------------------|
|--5---5--5--5---5--5--5---5--5------|----------------------3---3--3--3---3--3--|

|------------------------------------|------------------------------------------|
|------------------------------------|------------------------------------------|
|---------------------------------2--|--3---3--3--3---3--3----------------------|
|--5---5--5--5---5--5--5---5--5------|----------------------3---3--3--3---3--3--|

                                        if you...
                                        there is...
                                        if you...
|------------------------------------|-----------------|-----------------|-----------------|
|------------------------------------|-----------------|-----------------|-----------------|
|---------------------------------2--|--0-----------0--|--0-----------0--|--0-----------3--|
|--5---5--5--5---5--5--5---5--5------|------1---0------|------1---0------|-----3--2--0-----|

|------------------------------------------|-------------------------------------|
|------------------------------------------|-------------------------------------|
|------------------------------------------|-------------------------------------|
|--5---5--5--5---5--5--5---5--5--5---5--5--|--5---5--5--5---5--5--5--5--5--0--3--|

                                            1___________________________________
|------------------------------------------|-------------------------------------|
|------------------------------------------|------------------------------------*|
|------------------------------------------|------------------------------------*|
|--5---5--5--5---5--5--5---5--5--5---5--5--|--5---5--5--5---5--5--5--5--5--0--3--|

 2______________________________________
|---------------------------------------|------------------------------------------|
|---------------------------------------|------------------------------------------|
|---------------------------------------|------------------------------------------|
|--5---5--5--5---5--5--5---5--5--0---3--|--5---5--5--5---5--5--5---5--5--5---5--5--|

|------------------------------------------|------------------------------------------|
|------------------------------------------|------------------------------------------|
|------------------------------------------|------------------------------------------|
|--5---5--5--5---5--5--5---5--5--5---5--5--|--5---5--5--5---5--5--5---5--5--5---5--5--|

|---------------------------------------|------------------------------------------|
|---------------------------------------|------------------------------------------|
|---------------------------------------|------------------------------------------|
|--5---5--5--5---5--5--5---5--5--0---3--|--5---5--5--5---5--5--5---5--5--5---5--5--|

|------------------------------------------|------------------------------------------|
|------------------------------------------|------------------------------------------|
|------------------------------------------|------------------------------------------|
|--5---5--5--5---5--5--5---5--5--5---5--5--|--5---5--5--5---5--5--5---5--5--5---5--5--|

|------------------------------------|------------------------------------------|
|------------------------------------|------------------------------------------|
|---------------------------------2--|--3---3--3--3---3--3----------------------|
|--5---5--5--5---5--5--5---5--5------|----------------------3---3--3--3---3--3--|

|------------------------------------|------------------------------------------|
|------------------------------------|------------------------------------------|
|---------------------------------2--|--3---3--3--3---3--3----------------------|
|--5---5--5--5---5--5---5---5--5-----|----------------------3---3--3--3---3--3--|

|------------------------------------|
|------------------------------------|
|---------------------------------2--|
|--5---5--5--5---5--5--5---5--5------|

CODA
   beast
|------------------------------------------|--------------------------------------|
|------------------------------------------|--------------------------------------|
|------------------------------------------|--------------------------------------|
|--5---5--5--5---5--5--5---5--5--5---5--5--|--5---5--5--5---5--5--5--5--5--0---3--|

|------------------------------------------|--------------------------------------|
|------------------------------------------|--------------------------------------|
|------------------------------------------|--------------------------------------|
|--5---5--5--5---5--5--5---5--5--5---5--5--|--5---5--5--5---5--5--5--5--5--0---3--|

|------------------------------------------|--------------------------------------|
|------------------------------------------|--------------------------------------|
|------------------------------------------|--------------------------------------|
|--5---5--5--5---5--5--5---5--5--5---5--5--|--5---5--5--5---5--5--5--5--5--0---3--|

|-----------------|-----|--------------|
|-----------------|-----|--------------|
|--0---3---2---1--|--2--|--3--2--------|
|-----------------|-----|--------3--5--|
Composição de Dee Snider
Colaboração e revisão:
  • valdir júnior
339 exibições

0 comentários

Mostrar mais comentários

Conseguiu tocar?

0 Tocaram 0 Ainda não

Grave um vídeo tocando The Beast e mande pra gente!

00:00 / 00:00
outros vídeos desta música
repetir qualidade Automático
Outros vídeos desta música
00:00 / 00:00
Automático

Cifra Club Pro

Aproveite o Cifra Club com benefícios exclusivos e sem anúncios
7 dias grátis
Cifra Club Pro
Aproveite o Cifra Club com benefícios exclusivos e sem anúncios
7 dias grátis
OK