Cifra Club

A man and a woman

U2

Tab de baixo: Principal
U2 – A man and a woman

O baixo é composto por apenas algumas frases que se repetem ao longo da música. 
O momento em que cada frase aparece pela primeira vez está indicado entre 
parênteses. Tempo (+) e contratempo (-) estão indicados numa das cordas que não 
é usada.
/%/  = Repetição do compasso anterior.
/%%/ = Repetição dos 2 compassos anteriores.

(frase 1)

G:+-+-+-+-+-+-+-+-|+-+-+-+-+-+-+-+-|+-+-+-+-+-+-+-+-|+-+-+-+-+-+-+-+-|
D:----------------|----------------|----------------|----------------|
A:--25--2--22-----|------/%/-------|--25--2--22-----|--25--2--22-----|
E:25-----25-------|----------------|35-----35-------|25-----25-------|

(intro) Bm Bm G F#

Little sister don’t you worry about a thing today, Take the heat from the sun
Little sister	I know that everything is not ok, But you’re like honey on my tongue

(frase 2)

G:+-+-+-+-+-+-+-+-|+-+-+-+-+-+-+-+-|+-+-+-+-+-+-+-+-|+-+-+-+-+-+-+-+-|
D:----------------|----------------|---4--4---------|---2--2---------|
A:---2--2---2-----|---5-25---5-4-3-|2----5----5-4-2-|-----4----4-2---|
E:0----5------5-4-|3---------------|----------------|5-------------5-|

True love never can be rent	But only true love can keep beauty innocent

(frase 3)

G:+-+-+-+-+-+-+-+-|+-+-+-+-+-+-+-+-|+-+-+-+-+-+-+-+-|+-+-+-+-+-+-+-+-|
D:----------------|----------------|----------------|----------------|
A:--------------2-|------------2---|--------------2-|----------------|
E:33-3-3-3-3-35---|33-3-3-3-3-3--5-|33-3-3-3-3-35---|33-3-3-32-------|

I could never take a chance	Of losing love to find romance
In the mysterious distance	Between a man and a woman
No I could never take a chance, ‘Cos I could never understand
The mysterious distance, Between a man and a woman

(frase 1)

You can run from love, And if it’s really love it will find you
Catch you by the heel
But you can’t be numb for love, The only pain is to feel nothing at all
How can I hurt when I’m holding you?

(frase 3)

I could never take a chance	Of losing love to find romance
In the mysterious distance	Between a man and a woman
You´re the one and there´s no-one else. You make me wanna loose myself
In the mysterious distance 	Between a man and a woman

(frase 4)

G:+-+-+-+-+-+-+-+-|+-+-+-+-+-+-+-+-|+-+-+-+-+-+-+-+-|+-+-+-+-+-+-+-+-|
D:----------------|----------------|----------------|----------------|
A:--------2-------|--------2-------|------/%%/------|----------------|
E:0---------------|5--------5325323|----------------|3-------2-------|

Brown eyed girl across the street	On rue Saint Divine
I thought this is the one for me	But she was already mine
You were already mine…

(frase 1)

Little sister	I’ve been sleeping in the street again	Like a stray dog
Little sister	I’ve been trying to feel complete again	But you’re gone and so is God

(frase 2)

The soul needs beauty for a soul mate, When the soul wants… the soul waits …

(frase 3)

I could never take a chance	Of losing love to find romance
In the mysterious distance	Between a man and a woman
For love and sex and faith and fear	And all the thigs that keep us here
In the mysterious distance, Between a man and a woman

(frase 5)

G:+-+-+-+-+-+-+-+-|+-+-+-+-+-+-+-+-|+-+-+-+-+-+-+-+-|+-+-+-+-+-+-+-+-|
D:----------------|----------------|----------------|----------------|
A:2---------------|------/%/-------|----------------|----------------|
E:-------5--------|----------------|3---------------|2-------5-------|

G:+-+-+-+-+-+-+-+-|+-+-+-+-+-+-+-+-|+-+-+-+-+-+-+-+-|+-+-+-+-+-+-+-+-|
D:----------------|----------------|----------------|----------------|
A:2---------------|----------------|----------------|----------------|
E:----------------|----------------|----------------|----------------|

Bm		Bm	A	G		      F#                Bm
You See?	You See?	How can I hurt when I’m holding you?
exibições 644
Composição: Adam Clayton / Bono / Larry Mullen, Jr. / The Edge Colaboração e revisão:
  • Mário Júnior

0 comentários

mostrar mais comentários

Conseguiu tocar?

0 tocaram 0 ainda não

Grave um vídeo tocando A man and a woman e mande pra gente!

00:00 / 00:00
outros vídeos desta música
repetir qualidade Automático
Outros vídeos desta música
00:00 / 00:00
Automático
OK