Cifra Club

Boomerang Ii

U2

Tab de baixo: Principal
 ----------------------------

 Main riff:

 G---------------------------------
 D---------------------------------
 A----7-7-7-5-7-------7-7-7-5-7----
 E--7-----------5---7--------------

 The two interludes in the song goes like this:

 G------------
 D------------
 A-------5----
 E--3------5--

 Repeat that 4 times and then back to the main riff 

 That's all!
 
 Tabbed by Roberto Cruz
 Comments, questions, corrections e-mail me at
 *

 ----------------------------

 This is not a correction, but this song sounds much better with slappings.
 Also the little interludes are played like this:

 G------------
 D------------
 A------------ (4 times)
 E--3----3-5-- 

exibições 1.173

0 comentários

mostrar mais comentários

Conseguiu tocar?

0 tocaram 0 ainda não

Grave um vídeo tocando Boomerang Ii e mande pra gente!

00:00 / 00:00
outros vídeos desta música
repetir qualidade Automático
Outros vídeos desta música
00:00 / 00:00
Automático
OK