Cifra Club

Into The Heart

U2

Tab de baixo: Principal
 
Standard Tuning E,A,D,G 

Intro: play 15 or 16 times

G|-----------------------------------| 
D|*---------------------------------*|      
A|*-3-3-3-3-3-3-3-3--3-3-3-3-3-3-3-3*|
E|-----------------------------------|


G|--------------------------------------------------------------------|
D|*-------------------------------------------------------------------|
A|*-3-3-3-3-3-3-3-3--3-3-3-3-3-3-3-3-5-5-5-5-5-5-5-5--5-5-5-5-5-5-5-5-|
E|--------------------------------------------------------------------|

G|--------------------------------------------------------------------|
D|*-------------------------------------------------------------------|
A|*-3-3-3-3-3-3-3-3--3-3-3-3-3-3-3-3-5-5-5-5-5-5-5-5--5-5-5-5-5-5-5-5-|
E|--------------------------------------------------------------------|

G|--------------------------------------------------------------------|
D|*-------------------------------------------------------------------|
A|*-3-3-3-3-3-3-3-3--3-3-3-3-3-3-3-3-2-2-2-2-2-2-2-2--2-2-2-2-2-2-2-2-|
E|--------------------------------------------------------------------|

G|--------------------------------------------------------------------|
D|*-------------------------------------------------------------------|
A|*-1-1-1-1-1-1-1-1--1-1-1-1-1-1-1-1-0-0-0-0-0-0-0-0--0-0-0-0-0-0-0-0-|
E|--------------------------------------------------------------------|

G|--------------------------------------------------------------------|
D|*-------------------------------------------------------------------|
A|*-3-3-3-3-3-3-3-3--3-3-3-3-3-3-3-3-2-2-2-2-2-2-2-2--2-2-2-2-2-2-2-2-|
E|--------------------------------------------------------------------|

|---------------------------------------------------------------------------
|*--------------------------------------------------------------------------
|*1-1-1-1-1-1-1-1--1-1-1-1-1-1-1-1-0-0-0-0-0-0-0-0-/12-12-12-12-12-12-12-12/
|---------------------------------------------------------------------------

G|--------------------------------------------------------------------|
D|*-------------------------------------------------------------------|
A|*-3-3-3-3-3-3-3-3--3-3-3-3-3-3-3-3-2-2-2-2-2-2-2-2--2-2-2-2-2-2-2-2-|
E|--------------------------------------------------------------------|

G|--------------------------------------------------------------------|
D|*-------------------------------------------------------------------|
A|*-1-1-1-1-1-1-1-1--1-1-1-1-1-1-1-1-0-0-2-0-3-0-5-0-7-0-5-0-3-0-2-0--|
E|--------------------------------------------------------------------|

G|--------------------------------------------------------------------|
D|*-------------------------------------------------------------------|
A|*-3-3-3-3-3-3-3-3--3-3-3-3-3-3-3-3-2-2-2-2-2-2-2-2--2-2-2-2-2-2-2-2-|
E|--------------------------------------------------------------------|

G|--------------------------------------------------------------------|
D|*-------------------------------------------------------------------|
A|*-1-1-1-1-1-1-1-1--1-1-1-1-1-1-1-1-0-0-2-0-3-0-5-0-7-0-5-0-3-0-2-0--|
E|--------------------------------------------------------------------|

G|--------------------------------------------------------------------|
D|*-------------------------------------------------------------------|
A|*-3-3-3-3-3-3-3-3--3-3-3-3-3-3-3-3-2-2-2-2-2-2-2-2--2-2-2-2-2-2-2-2-|
E|--------------------------------------------------------------------|

G|--------------------------------------------------------------------|
D|*-------------------------------------------------------------------|
A|*-1-1-1-1-1-1-1-1--1-1-1-1-1-1-1-1-0-0-0-0-0-0-0-0--0-0-0-0-0-0-0-0-|
E|--------------------------------------------------------------------|

G|----------------------------5-5-5----------------------------4-4-4--|
D|*-------------------------------------------------------------------|
A|*-3-3h----3-3h----3-3h--3----------2-2h----2-2h----2-2h--2----------|
E|--------------------------------------------------------------------|

G|--------------------------------------------------------------------|
D|*-------------------------------------------------------------------|
A|*-1-1h----1-1h----1-1h--1----------0-0h----0-0h----0-0h--0----------|
E|--------------------------------------------------------------------|

G|----------------------------5-5-5----------------------------4-4-4--|
D|*-------------------------------------------------------------------|
A|*-3-3h----3-3h----3-3h--3----------2-2h----2-2h----2-2h--2----------|
E|--------------------------------------------------------------------|

G|--------------------------------------------------------------------|
D|*-------------------------------------------------------------------|
A|*-1-1h----1-1h----1-1h--1----------0-0h----0-0h----0-0h--0----------|
E|--------------------------------------------------------------------|

G|--------------------------------------------------------------------|
D|*-------------------------------------------------------------------|
A|*-3-3-3-3-3-3-3-3--3-3-3-3-3-3-3-3-5-5-5-5-5-5-5-5--5-5-5-5-5-5-5-5-|
E|--------------------------------------------------------------------|

G|--------------------------------------------------------------------|
D|*-------------------------------------------------------------------|
A|*-3-3-3-3-3-3-3-3--3-3-3-3-3-3-3-3-5-5-5-5-5-5-5-5--5-5-5-5-5-5-5-5-|
E|--------------------------------------------------------------------|

G|---------------------------------------------------------------------| 
D|*-------------------------------------------------------------------*| 
A|*-3-3-3-3-3-3-3-3--3-3-3-3-3-3-3-3-5-5-5-5-5-5-5-5--5-5-5-5-5-5-5-5-*| 
E|---------------------------------------------------------------------|


G|----------------------------------|
D|----------------------------------|
A|-3--------------------------------|
E|----------------------------------|

exibições 2.106

0 comentários

mostrar mais comentários

Conseguiu tocar?

0 tocaram 0 ainda não

Grave um vídeo tocando Into The Heart e mande pra gente!

00:00 / 00:00
outros vídeos desta música
repetir qualidade Automático
Outros vídeos desta música
00:00 / 00:00
Automático
OK