Cifra Club

Saints Are Coming

U2

Tab de baixo: Principal
Tabbed By : Gady Ezra
e-mail: Confidential :P

Tuning: EADG

Interlude:
G ---------------------------------------------------------------|
D  -5-5-5-5-4-4-4-4----------------------------------------------|
A ------------------------5-5-5-5-4-4-4-4------------------------|
E ---------------------------------------------------------------|

Verse :
G ---------------------------------------------------------------|
D ---------------------------------------------------------------|
A -7-----10-----2------5-4-2-0-----------------------------------|
E ---------------------------------------------------------------|

Chorus
G ---------------------------------------------------------------|
D ---------------------------------------------------------------|
A ---------------------------------------------------------------|
E 0-0-0-0-0-0-0-0-3-3-3-3-3-3-3-3--------------------------------|


Chrous
G ---------------------------------------------------------------|
D ---------------------------------------------------------------|
A ---------------------------------------------------------------|
E 0-0-0-0-3-3-3-3-0-0-0-0-3-3-3-3-7-7-7-7-6-6-6-6----------------|

Order :
Interlude X2
Verse X3
Chorus X2
Interlude X4
Verse X3
Chorus X2


| /  slide up
| \  slide down
| h  hammer-on
| p  pull-off
| ~  vibrato
| +  harmonic
| x  Mute note
===============================================================================
exibições 3.387

0 comentários

mostrar mais comentários

Conseguiu tocar?

0 tocaram 0 ainda não

Grave um vídeo tocando Saints Are Coming e mande pra gente!

00:00 / 00:00
outros vídeos desta música
repetir qualidade Automático
Outros vídeos desta música
00:00 / 00:00
Automático
OK