Notificações Amigos pendentes

      U2

      Where the Streets Have No Name

      123.228 exibições
      Tom: G
      Versão 1
      -======-
      
      Tom :D
      Intro:  Dsus4  D      D/C# F#m/G B/G
              D             D/C# F#m/G B/G   (&Lead1a)
              Bm            A                (&Lead1a)
              D                              (&Lead1b)
      Riff1 Intro (organ)
      
      e|-3~~~---2~~~---9~---5~~---7~~~~~~---
      B|-3------3-----------7-----7---------
      G|-2------2-----------0-----0---------
      D|-0------0------0--------------------
      A|------------------------------------
      E|------------------------------------
      
      
         Dsus4  D      D/C# F#m/G B/G
      e|-10~~~~~~~~~---9~---5~~---7~~~~~~---
      B|-10-----------------7-----7---------
      G|-11-----------------0-----0---------
      D|-0-------------0--------------------
      A|------------------------------------
      E|------------------------------------
      
      
         D             D/C# F#m/G B/G
      e|-7---------------------5--------------------5--------------------
      B|-7---------------------5--------------------7--------------------
      G|-7---------------------6--------------------7--------------------
      D|-9---------------------7--------------------7--------------------
      A|-9---------------------7--------------------5--------------------
      E|-7---------------------5-----------------------------------------
      
        Bm                    A                    D
      
      Lead1a (Intro lead fast)
      
      e|-10-----------------
      B|----10----------10--
      G|-------12-11-12-----
      D|--------------------
      A|-------------------- 8x
      E|--------------------
      
      
      Lead1b (Intro lead fast)
      
      e|-------10-------10--
      B|----10-------10-----
      G|-12-------12--------
      D|--------------------
      A|-------------------- 2x
      E|--------------------
      
      
      Lead1c (Fast strum with echo)
      
      E|---10--10--10--10--10--10-
      B|---10--10--10--10--10--10-
      G|---11--11--11--11--11--11-
      D|--------------------------
      A|--------------------------
      E|--------------------------
      
      
      Lead1d
      
      e|-10-------10-------------
      B|----10-------10-------10-
      G|-------11-------11-12----
      D|-------------------------
      A|-------------------------
      E|-------------------------
      
      
      D      G          (&Lead1c/Lead1d)
      D      G
      Bm     A
      Cadd9   Cadd9
                D
      I_ wanna_ run___, I__ want to hide__
                D                                          G
      I_ wanna_ tear__ down__ the walls__ that hold__ me inside__
                   Bm                            A
      I want to reach__ out___    And touch_ the flame__
                 Cadd9                          Cadd9
      Where_ the streets have no_ name__             ah ah aaah
                D
      I_ wanna_ feel___, sun_light__ on_ my_ face_
                 D                                  G
      I see that dust_ cloud__ disappear_ without a trace__
                     Bm                          A
      I wanna_ take_ shel_ter___ from the poison rain__
                 Cadd9                          Cadd9
      Where_ the streets have no_ name__             oooooooooh aah
      [Chorus]
                                     D
      Where_ the_ streets_ have_ no_ name___
                                      D
      Where_ the_ streets_ have_ no__ name___
                                   G
      We're still buil_ding__ then BURN_ING_ down__ love_    BURN_ING_ down__ love_
                      Bm                      A
      And__ when_ I__ go_ there__, I go there with__ you___
                      D
      It's all_ I can do___
                     D
      The_ city's_ a flood___   And our_ love turns to_ rust__
                       D                                     G
      We're beaten and blown__ by_ the_ wind__, trampled_ in dust__
                      Bm                               A
      I'll show you a place___    high_ on the desert_ plain__      (yeah)
                 Cadd9                          Cadd9
      Where_ the streets have no_ name__             oooooh aaaah
      [Chorus2]
                                     D
      Where_ the_ streets_ have_ no_ name___
                                      D
      Where_ the_ streets_ have_ no__ name___
                                   G
      We're still buil_ding__ then BURN_ING_ down__ love_    BURN_ING_ down__ love_
                      Bm                      A
      And__ when_ I__ go_ there__, I go there with__ you___
                      D
      It's all_ I can do___       Our_ love_ turns to rust__
                       G
      We're beaten and blown__   by_ the_ wind__, blown__   by_ the_ wind__
               D
      oh__ and I see love__     See our love_ turn to rust__
                           G
      And we're beaten and blown__ by the wi__i__ind,   blown___ by the wind__
                 Bm                          A
      oh__ when I go_ there__     I go there with you__
                      D    (&Lead1)
      It's all_ I can do___
      
      
      Versão 2
      -======-
      
      Intro:
      
      
      E|-------------10----------------10----
      B|-----------10--10------------10--10--
      G|--12-11-12----------12-11-10---------
      D|-------------------------------------
      A|-------------------------------------
      E|-------------------------------------
      
      
      D
      I want to run, I want to hide
                                                   G
      I want to tear down the walls that hold me inside
                      Bm
      I want to reach out
                    A
      And touch the flame
                Csus9
      Where the streets have no name
      
      
      I want to feel, sunlight on my face
      See that dust cloud disappear without a trace
      I want to take shelter from the poison rain
      Where the streets have no name
      
        D
      Where the streets have no name
      Where the streets have no name
                                 G
      We're still building then burning down love
      Burning down love
                 Bm                   A
      And when I go there, I go there with you...
                      D
      It's all I can do
      
      
      The city's a flood
      And our love turns to rust
      We're beaten and blown by the wind, trampled in dust
      I'll show you a place high on the desert plain
      Where the streets have no name
      
      Where the streets have no name
      Where the streets have no name
      Still building then burning down love
      Burning down love
      And when I go there, I go there with you
      It's all I can do
      
       D
      Our love turns to rust
                           G
      And we're beaten and blown by the wind
                                   D
      Blown by the wind, oh and I see love
      See our love turn to rust
                           G
      And we're beaten and blown by the wind
                                   Bm
      Blown by the wind, oh when I go there
                  A
      I go there with you, it's all I can do
        Composição: Adam Clayton / Bono / Larry Mullen, Jr. / The EdgeColaboração e revisão:
        • Alessandre

        Comentários 3

        140 .
        • rafaelcapbra2 rafaelcapbra2: Em 07/02/2013 15:29

          Vídeo Aula pleaseeeeeeeee. Ñ dá pra entender nadaaaa!!!!!!!

        • zeca33 zeca33: Em 02/01/2012 10:40

          Video Aula Por Favor...

        • camuh camuh: Em 09/10/2011 23:18

          se fosse possivel descrever essa musica em uma palavra essa seria: LIBERDADE!!!!!!!!!!!!!!!!!!!!

          POR FAVOR FAÇAM UMA VIDEO AULA DESSA MU

        140 cancelar

        conseguiu tocar?

        covers

        Grave um vídeo tocando Where the Streets Have No Name e mande pra gente!

        Ex.: http://www.youtube.com/watch?v=0IvSvIwGdwk
        ver covers de outras músicas »
        0:00 / 0:00

        Capítulos

          2 versões de baixo exibições contribuição e correção
          1 versão de bateria exibições contribuição e correção
          1 versão de Guitar Proformatodownloadscontribuição
          play/pausefechar subir/descer velocidade
          6ª corda E5ª corda A4ª corda D3ª corda G2ª corda B1ª corda E
            acordes
            publicidade
            fechar
            ok