Elevator

UB40

Composição de: Ali Campbell / Earl Falconer / Jim Brown / Norman Hassan / Robin Campbell / UB40
Album-Rat in the Kitchen
Tabbed *


  verse; X2 *
G|-------------------------------|
D|-------------------------------|
A|-6-6--4--6-6-----6-6--4--6-64--|
E|----6-------2-4-----6--------6-|

G|-------------------------------|
D|-------------------------------|
A|----2-4---------6-6--4--6-6----|
E|-4-4----4-42-4-----6-------2-4-|

G|-------------------------------|
D|------------4-6----------------|
A|-6-6--4--6-6-----6-6--4--6-64--|
E|----6---------------6--------6-|

G|-------------------------------|
D|---------------------------4-6-|
A|----2-4---------6-6--4--6-6----|
E|-4-4----4-42-4-----6-----------|

  chorus;
G|----------------------------------|
D|-----------------------68------68-|
A|------46------46--66666---66666---|
E|-44444---44444--------------------|

G|----------------------------------|
D|-----------------------68------68-|
A|------46------46--66666---66666---|
E|-44444---44444--------------------|
Página 1 / 1

Letras e título
Acordes e artista

resetar configurações
OK