Cifra Club

Aprenda

Doctor doctor

UFO

Cifra: Principal (violão e guitarra)
tom: F
E|---------3-1-0-------------0----------------0-----------10---12-10-----|
B|-----3----------3------3------3-----------1---1-------------------10---|
G|---2---2-------------3---3------3-------2-------2-----10--10--------10-|
D|-0------------------------------------2-------------0------------------|
A|------------------1-----------------0----------------------------------|
E|-----------------------------------------------------------------------|

E|-------1| ?1p0---0p1---------5--3----------0-3-0-------12p10-------------
B|-------------3----------3------3---------------1----------10-----------|
G|----2--------------2------------3-----2------------10-------10---------|
D|--0-------------------1---------------------------0--------------------|
A|-----------------------------------0-----------------------------------|
E|-----------------------------------------------------------------------|

E|-------1| ?1p0---0p1---------5--3----------0-3-0-------12--10------------
B|-------------3----------3------3---------------1-----------10----------|
G|----2--------------2------------3-----2------------10--------10--------|
D|--0-------------------1---------------------------0--------------------|
A|-----------------------------------0-----------------------------------|
E|-----------------------------------------------------------------------|

E|-----------------------------------------------------------------------|
B|-----------------------------------------------------------------------|
G|-----------------------------------------------------------------------|
D|--7-----3-----5-----7-----7-----3--------------------------------------|
A|--5-----1-----3-----5-----5-----1-----3-----5-----7--------------------|
E|--------------------------------------1-----3-----5--------------------|

E|-------------------------------------------------------------8-8b10b8--|
B|-----------------------------5b7-7b5-3~~--6~~-------6------8-----------|
G|--5b7| ?7b5~~~~-3~~~~-2?5-5b7b5~~----------------5~~7---7/9--------------
D|-----------------------------------------------------------------------|
A|-----------------------------------------------------------------------|
E|-----------------------------------------------------------------------|

E|-----------------------------------------------------------------------|
B|-----------------------------------------------------------------------|
G|-----------------------------------------------------------------------|
D|--7-7-7-7---3-3-3-3-----------5-5-5-5----------------------------------|
A|--5-5-5-5---1-1-1-1--3-3-3-3--3-3-3-3----------------------------------|
E|---------------------1-1-1-1-------------------------------------------|

Dm             Bb
Doctor, doctor please
F        C
Oh, the mess   I'm in.
Dm             Bb
Doctor, doctor please
F        A
Oh, the mess   I'm in.

Dm            Bb
She walked up to me
F             C
and really stole my heart
Dm            Bb
and then she started
F          G      A
to take my body apart

Dm     Bb      C         F     
Living, loving I'm on the run
G       A       Dm              2x
so far away from you

Dm Bb F C 
Dm Bb F G A

Dm             Bb
Doctor, doctor please
F         C
Oh,  I'm going fast
Dm             Bb
Doctor, doctor please
F         A
Oh,  I'm going fast

Dm        Bb
Its only just a moment 
F             C
she's turning paranoid
Dm           Bb
That's not a situation 
F        G      A
for a n-nervous boy.

Dm     Bb      C         F    
G       A       Dm           2x

Dm Bb F C
Dm Bb F G A

Dm             Bb
Doctor, doctor please
F        C
Oh, the mess   I'm in.
Dm             Bb
Doctor, doctor please
F        A
Oh, the mess   I'm in.

Dm      Bb
But you look so angry 
F            C
as I crawl across your floor.
Dm              Bb
She's got the strain,
F        G      A
I can't take anymore


Dm      Bb      C         F     
Living, loving I'm on the run
G       A       Dm              2x
so far away from you

Dm Bb F Dm
Dm Bb F G A     2x

Dm             Bb
Doctor, doctor please
F        C
Oh, the mess   I'm in.
Dm             Bb
Doctor, doctor please
F         C
Oh,  I'm going fast...
Composição de Michael Schenker / Phil Mogg
Colaboração e revisão:
  • João Mangolin
  • alan abreu
29.080 exibições
    • ½ Tom
    • A
    • Bb
    • B
    • C
    • Db
    • D
    • Eb
    • E
    • F
    • F#
    • G
    • Ab
  • Adicionar à lista

    0 comentários

    Ver todos os comentários

    Conseguiu tocar?

    2 Tocaram 0 Ainda não

    Grave um vídeo tocando Doctor doctor e nos envie!

    00:00 / 00:00
    Outros vídeos desta música
    Repetir Qualidade Automático
    Outros vídeos desta música
    00:00 / 00:00
    Automático

    Cifra Club Pro

    Aproveite o Cifra Club com benefícios exclusivos e sem anúncios
    Cifra Club Pro
    Aproveite o Cifra Club com benefícios exclusivos e sem anúncios
    OK