Profession Of Violence

UFO

Composição de: Paul Chapman / Phil Mogg
tom: C
Tabbed by:laura_b
Email:*


  Am                     Am/g            Fmaj7        Em          Dm
e|------0--------|---------|--------|----0-0-----|-----0-----|----1-1----|
B|----1---1------|---1-----|-----1--|----1-----1-|---0-------|--3---3----|
G|---2-----2-----|----2----|----2---|---2------2-|---0----0--|--2-----2--|
D|--2-------2----|---------|-----2--|--3---------|--2------0-|-0-------0-|
A|-0---------0---|-0----0--|--------|------------|-2---------|-----------|
E|---------------|---------|-3------|------------|0----------|-----------|
      C+9           Fmaj7
e|-------0------|-----0-0----|------0----|--0-\--------------------------|
B|-----3---3----|----1---1---|-------0---|---0-\-------------------------|
G|----0-----0---|---2-----2--|----0---0--|----0-\------------------------|
D|---2-------2--|--3---------|---2-----0-|-----0-\-----------------------|
A|--3-----------|------------|--2--------|-------------------------------|
E|--------------|------------|-0---------|-------------------------------|

CHORDS

am dm c+9 am/g fmaj7 em

| /  slide up
| \  slide down
| h  hammer-on
| p  pull-off
| ~  vibrato
| +  harmonic
| x  Mute note
Página 1 / 1

Letras e título
Acordes e artista

resetar configurações
OK