Notificações Amigos pendentes

      Ultraje a Rigor

      Eu gosto de mulher

      134.233 exibições
      Tom: A
      Primeiro, aprenda as Tabs
      
      (*) várias vezes
      
      Riff 01
      
      e|------------|
      B|------------|
      G|----7-----9-|
      D|-7--7--9--9-|
      A|-7--5--9--7-|
      E|-5-----7----|
      
         A  D  B  E
      
      
      Riff 02
      
      e|----------------|
      B|----------------|
      G|-----7*------9*-|
      D|-7*--7*--9*--9*-|
      A|-7*--5*--9*--7*-|
      E|-5*------7*-----|
      
         A   D   B   E
      
      
      Riff 03
      
      e|-------------------------------|
      B|-------------------------------|
      G|-------------------------------|
      D|-------------------------------|
      A|-------------------------------|
      E|-0h3p0--5--3--0--3--5--5--3--0-|
      
      
      
      Riff 04
      
      e|------------|
      B|------------|
      G|-2*--4*-----|
      D|-2*--4*--5*-|
      A|-0*--2*--5*-|
      E|---------3*-|
      
         A   B   G
      
      
      Riff 05
      
      e|--------------------|
      B|--------------------|
      G|---4----5----7----9-|
      D|-4-4--5-5--7-7--9-9-|
      A|-4-2--5-3--7-5--9-7-|
      E|-2----3----5----7---|
      
         F#B  G C  A D  B E
      
      
      Solo
      
      e|-----------------------------------------------|
      B|-7-7-7-7-7-7-7-6h7-7-7-7-7-7-7-7-6h7-7-7-7-6h7-|
      G|-----------------------------------------------|
      D|-----------------------------------------------|
      A|-----------------------------------------------|
      E|-----------------------------------------------|
      
      
      e|----------------------------------|
      B|-7-7-7-6-6-5-5-4-4-3-3--7p6p5p4/3-|
      G|----------------------------------|
      D|----------------------------------|
      A|----------------------------------|
      E|----------------------------------|
      
      
      e|-----------------------------------------------|
      B|-7-7-7-7-7-7-7-6h7-7-7-7-7-7-7-7-6h7-7-7-7-6h7-|
      G|-----------------------------------------------|
      D|-----------------------------------------------|
      A|-----------------------------------------------|
      E|-----------------------------------------------|
      
      
      e|----------------------------------|
      B|-7-7-7-6-6-5-5-4-4-3-3--7p6p5p4/3-|
      G|----------------------------------|
      D|----------------------------------|
      A|----------------------------------|
      E|----------------------------------|
      
      
      e|-------------------------------------------------------------------|
      B|-10-10-10-10-10-10-10-9h10-10-10-10-10-10-10-10-9h10-10-10-10-9h10-|
      G|-------------------------------------------------------------------|
      D|-------------------------------------------------------------------|
      A|-------------------------------------------------------------------|
      E|-------------------------------------------------------------------|
      
      
      e|--------------------------------------|
      B|-10-10-10-9-9-8-8-7-7-6-6--10p9p8p7/6-|
      G|--------------------------------------|
      D|--------------------------------------|
      A|--------------------------------------|
      E|--------------------------------------|
      
      
      e|-----------------------------------------------|
      B|-7-7-7-7-7-7-7-6h7-7-7-7-7-7-7-7-6h7-7-7-7-6h7-|
      G|-----------------------------------------------|
      D|-----------------------------------------------|
      A|-----------------------------------------------|
      E|-----------------------------------------------|
      
      
      e|----------------------------------|
      B|-7-7-7-6-6-5-5-4-4-3-3--7p6p5p4/3-|
      G|----------------------------------|
      D|----------------------------------|
      A|----------------------------------|
      E|----------------------------------|
      
      
      e|--------------------------------------------------------------------|
      B|-9-8-7-6------------------------------------------------------------|
      G|---------9-8-7-6--7-6-5-4-------------------------------------------|
      D|--------------------------7-6-5-4--5-4-3-2--------------------------|
      A|-------------------------------------------5-4-3-2--3-2-1-0---------|
      E|------------------------------------------------------------3-2-1-0-|
      
      
      e|---------|
      B|---------|
      G|---------|
      D|---------|
      A|---------|
      E|-3-1-0-0-|
      
      
      
      Riff 06
      
      e|-------------------------------------------|
      B|-------------------------------------------|
      G|---4----5----7----8----9-----11-----13--14-|
      D|-4-4--5-5--7-7--8-8--9-9--11-11--13-13--14-|
      A|-4-2--5-3--7-5--8-6--9-7--11-9---13-11--12-|
      E|-2----3----5----6----7----9------11--------|
      
         F#B  G C  A D  A#D# B E  C# F#  D# G#  A
      
      
      Agora Toque!
      
      
      > INTRO
      Riff 01 4x
      
      
      > PONTE
      Riff 03 (Riff 02) 2x
      
      
      > VERSOS
      (Riff 04)
      Vou te contar o que me faz andar
      Se não é por mulher não saio nem do lugar
      Eu já não tento nem disfarçar
      Que tudo em que eu me meto é só pra impressionar
      
      Mulher de corpo inteiro
      Não fosse por mulher e eu nem era roqueiro
      Mulher que se atrasa, mulher que vai na frente
      Mulher dona-de-casa, mulher pra presidente
      
      Mulher de qualquer jeito
      Você sabe que eu adoro um peito
      Peito pra dar de mamar
      E peito só pra enfeitar
      
      Mulher faz bem pra vista
      Tanto faz se ela é machista ou se é feminista
      'Cê pode até achar que é um pouco de exagero
      
      
      > PRÉ REFRÃO
      (Riff 05)
      Mas eu sei lá, nem quero saber,
      eu gosto de mulher, eu gosto de mulher
      
      
      > REFRÃO
      (Riff 02)
      Ô Ô Ô Ô 
      Eu gosto é de mulher
      
      
      > PONTE
      Riff 03 (Riff 02) 2x
      
      
      > SOLO
      
      
      > PONTE
      Riff 03 (Riff 02) 2x
      
      
      > VERSOS
      (Riff 04)
      Nem quero que você me leve a mal
      Eu sei que hoje em dia isso nem é normal
      Eu sou assim meio atrasadão
      Conservador, reacionário e caretão
      
      Pra quê ser diferente
      Se eu fico sem mulher eu fico até doente
      Mulher que lava roupa, mulher que guia carro
      Mulher que tira a roupa, mulher pra tirar sarro
      
      Mulher eu já provei
      Eu sei que é bom demais, agora o resto eu não sei
      Sei que eu não vou mudar
      Sei que eu não vou nem tentar
      
      Desculpe esse meu defeito
      Eu juro que não é bem preconceito
      Eu tenho amigo homem, eu tenho amigo gay
      
      
      > PRÉ REFRÃO
      (Riff 05)
      Olha eu sei lá, eu sei que eu não sei,
      Eu gosto é de mulher Eu gosto é de mulher
      
      
      > REFRÃO
      (Riff 02)
      Ô Ô Ô Ô 
      eu gosto é de mulher
      
      
      > FIM
      Riff 06
      
      
      Qualquer dúvida acessem o www.ultraje.com ou o ultrajador.rg3.net! 
        Composição: Roger Rocha Moreira

        Comentários 2

        140 .
        • Pedro Henrique Pedro Henrique: Em 28/04/2014 15:42

          Como se faz harmônia da casa 0??

        • sullyvan.silva.50 sullyvan.silva.50: Em 31/10/2013 00:54

          Em galera será q vcs poderiam fazer uma video aula dessa musica? Ficarei agradecido :D

        140 cancelar

        conseguiu tocar?

        • •••

        covers

        Grave um vídeo tocando Eu gosto de mulher e mande pra gente!

        Ex.: http://www.youtube.com/watch?v=0IvSvIwGdwk
        ver covers de outras músicas »
        0:00 / 0:00

        Capítulos

          2 versões de violão dificuldade exibições contribuição e correção
          2 versões de guitarra dificuldade exibições contribuição e correção
          2 versões de cavaco dificuldade exibições contribuição e correção
          2 versões de teclado dificuldade exibições contribuição e correção
          play/pausefechar subir/descer velocidade
          6ª corda E5ª corda A4ª corda D3ª corda G2ª corda B1ª corda E
            acordes
            publicidade
            fechar
            ok