Cifra Club

Independente Futebol Clube

Ultraje a Rigor

Cifra: Versão 3 (violão e guitarra)
tom: D
[Intro] D

           A7
Eu não sou seu
                 D7
Eu não sou de ninguém
           A7
Você não é minha
                D7
Eu não tenho ninguém

[Refrão]

E|-------------------------------------------|
B|-------------------------------------------|
G|-------------------------------------------|
D|------------------------------------7-7----|
A|-----7-7--9--7-7--9--7----7-9-7-7---5-5----|
E|-----5-5--5--5-5--5--5----5-5-5-5----------|

          A7
Nós somos livres
                     D7
Independente Futebol Clube

                  A7
Você não manda em mim
                  D7
Eu não mando em você
                    A7
Eu só faço o que eu quero
                  D7
Você só faz o que quer

[Refrão]

E|-------------------------------------------|
B|-------------------------------------------|
G|-------------------------------------------|
D|------------------------------------7-7----|
A|-----7-7--9--7-7--9--7----7-9-7-7---5-5----|
E|-----5-5--5--5-5--5--5----5-5-5-5----------|

          A7
Nós somos livres
                     D7
Independente Futebol Clube

           G
Se a gente tá assim comendo capim
           D7
É porque a gente quer e se não quiser

[Riff] A7

E|-------------------------------------------|
B|-------------------------------------------|
G|-------------------------------------------|
D|------------------------------------7-7----|
A|-----7-7--9--7-7--9--7----7-9-7-7---5-5----|
E|-----5-5--5--5-5--5--5----5-5-5-5----------|

          A7
Nós somos livres
                       D7
Independente Futebol Clube
Composição de Roger Rocha Moreira
Colaboração e revisão:
  • Vinícius Veras
27.497 exibições
  • Simplificar cifra
    • ½ Tom
    • A
    • Bb
    • B
    • C
    • Db
    • D
    • Eb
    • E
    • F
    • F#
    • G
    • Ab
  • Adicionar à lista

    0 comentários

    Ver todos os comentários

    Conseguiu tocar?

    0 Tocaram 0 Ainda não

    Grave um vídeo tocando Independente Futebol Clube e nos envie!

    00:00 / 00:00
    Outros vídeos desta música
    Repetir Qualidade Automático
    Outros vídeos desta música
    00:00 / 00:00
    Automático

    Cifra Club Pro

    Aproveite o Cifra Club com benefícios exclusivos e sem anúncios
    Cifra Club Pro
    Aproveite o Cifra Club com benefícios exclusivos e sem anúncios
    OK