Cifra Club

Independente Futebol Clube

Ultraje a Rigor

Tab de baixo: Principal
G|--------------|-------4-----|
D|---------4----|--44-77--7---|  (2x)
A|----44-77--7--|55---------5-|
E|-55---------5-|-------------|

G|----------------------|
D|-------4---------4----|
A|--4--7------4--7----55|
E|5---------5-----------|

G|--------------|-------4-----|
D|---------4----|--44-77--7---|  (2x)
A|----44-77--7--|55---------5-|
E|-55---------5-|-------------|

G|----------------------|
D|-------4---------4----|
A|--4--7------4--7----55|
E|5---------5-----------|

Refrão:
G|------------------|-------4--------4|------------------|----|
D|---------2-------2|--4--7-----4--7- |-------4--------4-|----| (2x)
A|---2--5-----2--5--|5--------5------ |--4--7-----4--7---|-55-|
E|3---------3-------|-----------------|5--------5--------|----|

Solo:
G|------------------|-------4--------4|------------------|
D|---------2-------2|--4--7-----4--7- |-------4--------4-| 
A|---2--5-----2--5--|5--------5------ |--4--7-----4--7---|
E|3---------3-------|-----------------|5--------5--------|

G|------------------|-------4--------4|------------------|----|
D|---------2-------2|--4--7-----4--7- |-------4--------4-|----| 
A|---2--5-----2--5--|5--------5------ |--4--7-----4--7---|-55-|
E|3---------3-------|-----------------|5--------5--------|----|
Composição de Roger Rocha Moreira
Colaboração e revisão:
  • LukaSabbath
3.125 exibições

0 comentários

Ver todos os comentários

Conseguiu tocar?

4 Tocaram 1 Ainda não

Grave um vídeo tocando Independente Futebol Clube e nos envie!

00:00 / 00:00
Outros vídeos desta música
Repetir Qualidade Automático
Outros vídeos desta música
00:00 / 00:00
Automático

Cifra Club Pro

Aproveite o Cifra Club com benefícios exclusivos e sem anúncios
Cifra Club Pro
Aproveite o Cifra Club com benefícios exclusivos e sem anúncios
OK