Cifra Club

Inútil

Ultraje a Rigor

Tab de baixo: Principal
exibições 27.399
[Introdução]


Parte 1 (2x)
G|----------------------------------------------|
D|---5-5p4------------------5-5p4---------------|
A|---------5h7-----5h7p5----------5h7-----5h7p5-|
E|-0-----------5h7--------0-----------5h7-------|


[Primeira parte]

A gente não sabemos escolher presidente...

Parte 1 (2x)
G|----------------------------------------------|
D|---5-5p4------------------5-5p4---------------|
A|---------5h7-----5-7-5----------5h7-----5-7-5-|
E|-0-----------5h7--------0-----------5h7-------|


[Refrão]

Inútil!A gente somos inútil...

Parte 1 (4x)
G|----------------------------------------------|
D|---5-5p4------------------5-5p4---------------|
A|---------5h7-----5h7p5----------5h7-----5h7p5-|
E|-0-----------5h7--------0-----------5h7-------|


[Introdução 2]

Parte 1 (2x)
G|----------------------------------------------|
D|---5-5p4------------------5-5p4---------------|
A|---------5h7-----5h7p5----------5h7-----5h7p5-|
E|-0-----------5h7--------0-----------5h7-------|

[Segunda parte]

A gente faz carro e não sabe guiar...

Parte 1 (2x)
G|----------------------------------------------|
D|---5-5p4------------------5-5p4---------------|
A|---------5h7-----5-7-5----------5h7-----5-7-5-|
E|-0-----------5h7--------0-----------5h7-------|


[Refrão 2]

Inútil!A gente somos inútil...

Parte 1 (4x)
G|----------------------------------------------|
D|---5-5p4------------------5-5p4---------------|
A|---------5h7-----5h7p5----------5h7-----5h7p5-|
E|-0-----------5h7--------0-----------5h7-------|


[Introdução 3]

Parte 1 (2x)
G|----------------------------------------------|
D|---5-5p4------------------5-5p4---------------|
A|---------5h7-----5h7p5----------5h7-----5h7p5-|
E|-0-----------5h7--------0-----------5h7-------|


[Solo de Guitarra]

Parte 1 (4x)
G|----------------------------------------------|
D|---5-5p4------------------5-5p4---------------|
A|---------5h7-----5-7-5----------5h7-----5-7-5-|
E|-0-----------5h7--------0-----------5h7-------|


[Refrão 3]

Inútil!A gente somos inútil...

Parte 1 (4x)
G|----------------------------------------------|
D|---5-5p4------------------5-5p4---------------|
A|---------5h7-----5h7p5----------5h7-----5h7p5-|
E|-0-----------5h7--------0-----------5h7-------|


[Terceira parte]

A gente faz música e não consegue gravar...

Parte 1 
G|----------------------------------------------|
D|---5-5p4------------------5-5p4---------------|
A|---------5h7-----5-7-5----------5h7-----5-7-5-|
E|-0-----------5h7--------0-----------5h7-------|

G|----------------------------------------------|
D|---5-5p4--------------------------------------|
A|---------5h7-----5-7-5------------------------|
E|-0-----------5h7--------0---------------------|


[Refrão 4]

Inútil!A gente somos inútil...

Parte 1 de 2 (4x)
G|----------------------------------------------|
D|---5-5p4------------------5-5p4---------------|
A|---------5h7-----5h7p5----------5h7-----5h7p5-|
E|-0-----------5h7--------0-----------5h7-------|

Parte 2 de 2
G|----------------------------------------------|
D|---5-5p4-------------5----5-5p4-------------5-|
A|---------5h7-----5h7------------5h7-----5h7---|
E|-0-----------5h7--------0-----------5h7-------|

G|----------------------------------------------|
D|---5-5p4-------------5------------------------|
A|---------5h7-----5h7--------------------------|
E|-0-----------5h7--------0---------------------|
Colaboração e revisão:
  • Reginaldo Costa
  • Allan Carlos
  • Lucas Fernandes

0 comentários

mostrar mais comentários

Conseguiu tocar?

7 tocaram 0 ainda não

Grave um vídeo tocando Inútil e mande pra gente!

00:00 / 00:00
outros vídeos desta música
repetir qualidade Automático
Outro vídeos desta música
00:00 / 00:00
Automático
Capítulos
  • Tocando a música
  • Apresentação / Equipamentos
  • TAB - Introdução
  • TAB - Primeira parte
  • TAB - Terceira parte
  • TAB - Refrão 4
  • Encerramento
OK