Cifra Club

Aprenda

Sanctity Of Brothers Intro

Unearth

Cifra: Principal (violão e guitarra)
Tom: C





        So far so good. I dont think its right, but at least its a cool riff. 
        Thanks for any Corrections or stuff like that. 



Gtr I (B E A D G B E) - 'Untitled'

    Q=140
   4/4
    Gtr I
      PM--|      PM  PM--|      PM  PM--|      PM  PM--|   PM--|
    E S S S  S S S E S S S  S S S E S S S  S S S S S S S S S S S
||----------------------------------------------------------------|
||----------------------------------------------------------------|
||o---------------------------------------------------------------|
||----------------------------------------------------------------|
||o-2--------3-2-0-2--------8-7-5-7--------3-2-0-7-------5--------|
||----0-0-0----------0-0-0----------0-0-0----------8-7-5---8-7-5--|
||----------------------------------------------------------------|


    PM--|     PM  PM--|     PM
  E S S S S S S E S S S S S S S S  S S S S S S  S S S S S S S S
|-----------------------------------------------------------------||---|
|-----------------------------------------------------------------||---|
|----------------------------------------------------------------o||---|
|-----------------------------------------------------------------||---|
|-2-------3-2-0-2-------8-7-5-7h8h10p8p7-5-3-5--7h8-5h7-3h5-3p2--o||---|
|---0-0-0---------0-0-0-------------------------------------------||---|
|-----------------------------------------------------------------||---|


  PM--|         PM--|       PM------|
  S S S  S S  S S S S S S S S S S S S S S S S S S S S S S  S S S S
|---------------------------------------------------------------------|
|---------------------------------------------------------------------|
|---------------------------------------------------------------------|
|---------------------------------------------------------------------|
|---------------------------------------------------------------------|
|-------10p7h10-------------------------------------------------------|
|-0-0-0---------0-0-0-5p3h5-0-0-0-0-0-7p5h7-0-0-0-0-0-5h7-10p8p7-5----|


|-|
|-|
|-|
|-|
|-|
|-|
|-|

Thats some part of the Chorus. 
  W  W  W
|------------|
|------------|
|------------|
|-9--7-------|
|-7--5--5----|
|-------3----|
|------------|

I will try further but I think its enough for the moment. 

Duration Legend
---------------
+ - note tied to previous; . - note dotted; .. - note double dotted
Uncapitalized letters represent notes that are staccato (1/2 duration)
Irregular groupings are notated above the duration line
Duration letters will always appear directly above the note/fret number it represents the
duration for.  Duration letters with no fret number below them represent rests.  Multi-
bar rests are notated in the form Wxn, where n is the number of bars to rest for.  Low
melody durations appear below the staff

Tablature Legend
----------------
 h   - hammer-on
 p   - pull-off
 b   - bend
 pb  - pre-bend
 r   - bend release (if no number after the r, then release immediately)
 /\  - slide into or out of (from/to "nowhere")
 s   - legato slide
 S   - shift slide
 - natural harmonic
n(n) - tapped harmonic
 ~   - vibrato
 tr  - trill
 T   - tap
 TP  - trem. picking
 PM  - palm muting
\n/  - tremolo bar dip; n = amount to dip
 \n  - tremolo bar down
 n/  - tremolo bar up
/n\  - tremolo bar inverted dip
 =   - hold bend; also acts as connecting device for hammers/pulls
  - volume swell (louder/softer)

Misc Legend
-----------
 |  - bar
||o - repeat start
o|| - repeat end
 :  - bar (freetime)
 &  - Coda

221 exibições
    • ½ Tom
    • A
    • Bb
    • B
    • C
    • Db
    • D
    • Eb
    • E
    • F
    • F#
    • G
    • Ab
  • Adicionar à lista

    0 comentários

    Mostrar mais comentários

    Conseguiu tocar?

    0 Tocaram 0 Ainda não

    Grave um vídeo tocando Sanctity Of Brothers Intro e mande pra gente!

    00:00 / 00:00
    outros vídeos desta música
    repetir qualidade Automático
    Outros vídeos desta música
    00:00 / 00:00
    Automático

    Cifra Club Pro

    Aproveite o Cifra Club com benefícios exclusivos e sem anúncios
    7 dias grátis
    Cifra Club Pro
    Aproveite o Cifra Club com benefícios exclusivos e sem anúncios
    7 dias grátis
    OK