Cifra Club

Aprenda

Sanctity Of Brothers

Unearth

Cifra: Principal (violão e guitarra)
Tom: C
hi there, i searched for the correct tab of this song everywhere, but i couldnt find it, 
i tabbed the first parts out by myself and you can be sure that its 100% correct ;)
so enjoy this awesome song!!
(i didnt write the p.m.s down because im to lazy but i think you can finger out which notes are p.m.)


----------------------------------------------------------------------------|
----------------------------------------------------------------------------|
----------------------------------------------------------------------------|
---7------8-7---7------12-11----11------8-7---7-------5-----5-7-------------|
-----0000-----8---0000-------12----0000-----8---5-7-8---7-8-----------------|
----------------------------------------------------------------------------|


-----------------------------------------------------------------------------|
-----------------------------------------------------------------------------|
-----------------------------------------------------------------------------|
---------8-7---7-------12-11----11-12-14-12-11------------7---7---7---7------|   3x
-----0000-----8---0000------12-----------------12-10-12-8---7---5---5--------|
-----------------------------------------------------------------------------|

then this:

----------------------------------------------------------------------------|
----------------------------------------------------------------------------|
----------------------------------------------------------------------------|
----------------------------------------------------------------------------|
--------12-10-12-----------------------------------12-10----10--------------|
----000----------000-12-10-12-0000000-13-12-13-000-------12----12-10-12-----|


-----------------------------------------------------------------------------|
-----------------------------------------------------------------------------|
-----------------------------------------------------------------------------|
-----------------------------------------------------------------------------|
--------12-10-12-------------------------------------10----------12-10-------|
----000----------000-12-10-12-0000000-13-12-13-10-12----13-12-10-------12-10-|

so the rest follows soon...
metal 4 life
Composição de Trevor Phipps / Unearth
383 exibições
    • ½ Tom
    • A
    • Bb
    • B
    • C
    • Db
    • D
    • Eb
    • E
    • F
    • F#
    • G
    • Ab
  • Adicionar à lista

    0 comentários

    Mostrar mais comentários

    Conseguiu tocar?

    0 Tocaram 0 Ainda não

    Grave um vídeo tocando Sanctity Of Brothers e mande pra gente!

    00:00 / 00:00
    outros vídeos desta música
    repetir qualidade Automático
    Outros vídeos desta música
    00:00 / 00:00
    Automático

    Cifra Club Pro

    Aproveite o Cifra Club com benefícios exclusivos e sem anúncios
    7 dias grátis
    Cifra Club Pro
    Aproveite o Cifra Club com benefícios exclusivos e sem anúncios
    7 dias grátis
    OK