Cifra Club

Love (I Don't Need It Anymore)

Union

Cifra: Principal (violão e guitarra)
Tom: A#
Eb Tuning

Key:
h = hammer-on
p = pull-off
x = Muted String (Palm Muting)

Love (I don't need it anymore)

intro                       repeat 3 times 
----------------------------------------|------------------------------------
----------------------------------------|------------------------------------
----------------------------------------|------------------------------------
----------------------------4-4------4--|--------------------------4-4-------
--------------3-h-4---------4-4------4--|--------------3-h-4-------4-4-------
0-h-2-h-3-h-5--------3-p-0--2-2--x-x-2--|0-h-2-h-3-h-5-------3-p-0-2-2--x-x--


1st verse (1st + 2nd verses are the same)
|----------------------------------------------------------------------------
|----------------------------------------------------------------------------
|----------------------------------------------------------------------------
|-4--x-x-x-x-x-x-x-x-----------------------------4-4-----4-------------------
|-4--x-x-x-x-x-x-x-x----------------3-h-4--------4-4-----4-------------------
|-2--x-x-x-x-x-x-x-x--0-h-2-h-3-h-5--------3-h-0-2-2-x-x-2--0-h-2-h-3-h-5----



                repeat     pre chorus
----------------------||---3-3-------3----3------3--2--3-3-3-3-3-3-2---------
----------------------||---3-3-------3----3------3--3--3-3-3-3-3-3-3---------
---------------------.||---0-0-------0----0------0--2--2-2-2-2-2-2-2---------
--------------4-4----.||---0----2-2----------2-2----0--0-0-0-0-0-0-0---------
-3-h-4--------4-4-----||---2----0-0-----2----3-3-----------------------------
-------3-h-0--2-2-x-x-||---3-------------------------------------------------

                                         end of pre chorus  
-3--3-------3-----3-------3---2--3-3-3-3-3-3-2-2-2-2-2-----|
-3--3-------3-----3-------3---3--3-3-3-3-3-3-3-3-3-3-3-----|
-0--0-------0-----0-------0---2--2-2-2-2-2-2-2-2-2-2-2-----|
-0-----2-2-----------2-2------0--0-0-0-0-0-0-0-0-0-0-0-----|
-2-----0-0-----2-----3-3-----------------------------------|
-3---------------------------------------------------------|


chorus
|--0-0---------3-3----3-3----0-0------0-0---------3-3----3-3----0-0-|
|--0-0---------3-3----2-2----1-1------0-0---------3-3----2-2----1-1-|
|--0-0---------0-0----3-3----3-3------0-0---------0-0----3-3----3-3-|
|--2-2---------0-0----0-0----2-2------2-2---------0-0----0-0----2-2-|
|--2-2---------2-2-----------3-3------2-2---------2-2-----------3-3-|
|--0-0---0-2---3-3--------------------0-0---0-2---3-3---------------|



Rythm over solo
---0-----0---0-----0--------------------------------0-----0---0-----0--------
---1-----1---1-----0--------------------------------1-----1---1-----0--------
---2-----2---2-----1--8-8-8--6-6-6--5-5-5--3-3-3----2-----2---2-----1--7-7-7-
---2-----2---2-----2--8-8-8--6-6-6--5-5-5--3-3-3----2-----2---2-----2--7-7-7-
-0-----------------2--6-6-6--4-4-4--3-3-3--1-1-1--0-----------------2--5-5-5-
-----3-3---2---0-0------------------------------------3-3---2---0-0----------

                                        repeat 4x
                     |=====================================|
---------------------------------------------------------------|
---------------------------------------------------------------|
-5-5-5--4-4-4--3-3-3-------------------------------------------|
-5-5-5--4-4-4--3-3-3-----------------------------4-4--x-x-4----|
-3-3-3--2-2-2--1-1-1----------------3-h-4--------4-4--x-x-4----|
----------------------0-h-2-h-3-h-5-------3-p-0--2-2--x-x-2----|


                                     (hold the bend)
solo                                   ==========
-----10--11------------------------------------------------------------------
-12--13b-14b~-----------------------------------------------11---------------
-14b--------------------------8-h-10b^10-10-10-10--10b-10-8------------------
-----------------------8-h-10------------------------------------------------
----------------8-h-10-------------------------------------------------------
-----------------------------------------------------------------------------

-12-------------10------12-15-12-15b--12-15-12-------------------------------
-15b--13-15-----13b--15b-----------------------15b-11----13-15-13--15-15-13--
------------14----------------------------------------14-------------------14
-----------------------------------------------------------------------------
-----------------------------------------------------------------------------
-----------------------------------------------------------------------------


-----------------------------------------------------------------------------
-------------------------------------------------5--5------5-----5----5------
-12b-h-10--12-10---------------------------------4b---4br----4br--4br--4br---
-----------------14b-14-12---------------------------------------------------
----------------------------14-12--------------------------------------------
-----------------------------------14-h-13-12--------------------------------


------------------------------------------|
---------16b----16b----16b~16b~16b--------|
-2-----------14-----14--------------14~---|
---4-4------------------------------------|
------------------------------------------|
------------------------------------------|
exibições 656
Acordes para:
    Composição: Bruce Kulick Colaboração e revisão:
    • peterson gusmão

    0 comentários

    mostrar mais comentários

    Conseguiu tocar?

    0 tocaram 0 ainda não

    Grave um vídeo tocando Love (I Don't Need It Anymore) e mande pra gente!

    00:00 / 00:00
    outros vídeos desta música
    repetir qualidade Automático
    Outros vídeos desta música
    00:00 / 00:00
    Automático
    OK