Notificações Amigos pendentes

      Uns e Outros

      Carta Aos Missionários

      123.673 exibições
      Tom: E
      Intro 2x:
      
      E|-------4--4--4--4--------|--4--4--4--4-----5-----5--|
      B|-------5--5--5--5--------|--5--5--5--5-----5-----5--|
      G|-------------------------|--------------------------|
      D|-------------------------|--------------------------|
      A|-------------------------|--------------------------|
      E|-------------------------|--------------------------|
      
      
      E|-------4--4--4--4--------|--7--7--7--5-----4-----4--|
      B|-------5--5--5--5--------|--5--5--5--5-----5-----5--|
      G|-------------------------|--------------------------|
      D|-------------------------|--------------------------|
      A|-------------------------|--------------------------|
      E|-------------------------|--------------------------|
      
      
      
       E                 B         F#m
      Missionários de um mundo pagão,
                  A      C#m
      proliferando ódio e destruição
                    A       B
      E nos quatro cantos da terra
      C#m        A         B       C#m  A B   C#m A B
      A morte,a discórdia,a ganância e a guerra...   e a guerra.
      
      E           B          F#m     A
      Missionários e missões suicidas
      Riff 1:
      
      E|----------------------|---------------------------|----------------------|
      B|----------------------|-----5---------------------|-------5--------------|
      G|----------------------|-----------6---------------|----------------------|
      D|------------------6s--|--7--------------7-----4s--|--6-------------------|
      A|----------------------|---------------------------|----------------------|
      E|----------------------|---------------------------|----------------------|
      
      
      
      E          B        F#m      A
      Crianças matando crianças inimigas
      Riff 2:
      
      E|-------------------------------|
      B|-------------------------------|
      G|------------------------9------|
      D|--------------7--9--11-----11--|
      A|-----7--9s11-------------------|
      E|-------------------------------|
      
      
      
      C#m         A     B         E              B
      Generais de todas as nações,fardas bonitas,condecorações
      C#m            A        B
      Documentam na nossa história
      C#m          A         B      E    B F#m A
      O seu rastro sujo de sangue e glória.
      Riff 3 - 2x:
      
      E|----------0-------------|-------------------------|
      B|----------------0-------|-------------------------|
      G|--1---------------------|--2--2--2--2-----1-------|
      D|--2---------------------|-------------------------|
      A|--2---------------------|-------------------------|
      E|--0---------------------|-------------------------|
      
      
      E|------0---0-------------|-------------------------|
      B|----------------0-------|-------------------------|
      G|--2---------------------|--2--2--2--2-----1-------|
      D|--4---------------------|-------------------------|
      A|--4---------------------|-------------------------|
      E|------------------------|-------------------------|
      
      
      Riff 4:
      
      E|-------------------------|--------------------------|
      B|-------5--5--5--5--------|--4--4--4--4-----5-----5--|
      G|-------4--4--4--4--------|--4--4--4--4-----4-----4--|
      D|-------------------------|--------------------------|
      A|-------------------------|--------------------------|
      E|-------------------------|--------------------------|
      
      
      E|--------------------------|--------------------------|
      B|--------5--5--5--5--------|--7--7--7--5-----4-----5--|
      G|--------4--4--4--4--------|--4--4--4--4-----4-----4--|
      D|--------------------------|--------------------------|
      A|--------------------------|--------------------------|
      E|--------------------------|--------------------------|
      
      
      E|--------------------------|--------------------------|
      B|--------5--5--5--5--------|--4--4--4--4-----5-----5--|
      G|--------4--4--4--4--------|--4--4--4--4-----4-----4--|
      D|--------------------------|--------------------------|
      A|--------------------------|--------------------------|
      E|--------------------------|--------------------------|
      
      
      E|----------------------------|-----------------------------|-----|
      B|----------------------------|-----------------------------|-----|
      G|----------6-----4-----------|-----------------------------|-----|
      D|-----4g6-----6-----6--4--2--|--4-2----2--4br--L----4-2----|--2--|
      A|----------------------------|------4-------------------4--|-----|
      E|----------------------------|-----------------------------|-----|
      
      
      
      E            B      F#m            A
      Vindo de todas as partes,indo pra lugar algum
      E              B         F#m         A
      Assim caminha a raça humana,se devorando um a um
      C#m            A  B   C#m          A  B
      Gritei para o horizonte,e ele não me respondeu
          C#m        B        A
      E então fechei os olhos,sua voz
                 E  B  F#m  A
      Assim me bateu...
      Solo:
      
      E|-------------------------------------------|
      B|-------------------------------------------|
      G|-------------------------------------------|
      D|-------------------------------------------|
      A|-7---7-5-4---4-5-4---------4-5-4-----------|
      E|---7-------7-------7-3-3-7-------7-3-------|
      
      
        Composição: Nilo Nunes / Cal / Marcelo HayenaColaboração e revisão:
        • leoalmeida87
        • ricardo lucena

        Comentários 3

        140 .
        • rogerbastos rogerbastos: Em 29/08/2012 18:30

          Video aula, mas essa versão, nao do Biquini Cavadão

        • Sinho Cadeira Sinho Cadeira: Em 18/07/2012 09:27

          também quero essa vídeo-aula...

        • edisinhoedi edisinhoedi: Em 14/07/2012 22:47

          vídeo aula dessa música, por favor

        140 cancelar

        conseguiu tocar?

        • •••

        covers

        Grave um vídeo tocando Carta Aos Missionários e mande pra gente!

        Ex.: http://www.youtube.com/watch?v=0IvSvIwGdwk
        ver covers de outras músicas »
        0:00 / 0:00

        Capítulos

          play/pausefechar subir/descer velocidade
          6ª corda E5ª corda A4ª corda D3ª corda G2ª corda B1ª corda E
            acordes
            publicidade
            fechar
            ok