Pela Estrada

Valentin

Composição de: Valentin
tom: G
[Intro]  G  Em  G  Em

Riff
                                              ↑ ↓    ↑      ↑ ↓    ↑
E|---------------------------------------------0-0----0------0-0----0---|
B|---------------------------------0-3---------0-0----0------0-0----0---|
G|-----2p0---------0-----2p0-----------2p0-----0-0----0------0-0----0---|
D|------------0-2---------------0--------------2-2----2------2-2----2---|
A|------------------------------------------2--2-2-2--2---2--2-2-2--2---|
E|--3--3---3--3-3--3--3--3---3--3--3-3-3----0--0-0-0--0---0--0-0-0--0---|

G                                 Em
Quando o motor liga e eu nem sei mais 
G                                         Em
Quanto tempo faz que me entrego as suas curvas 
G                                  Em
Buscando qualquer coisa além de existir
G
Carne e osso, pulso, grito, choro, puxo o ar
    Em
Respiro fundo

  G
Detesto a cidade
Detesto a cidade
   Em
E mesmo assim 
  G
Alucino em cores, cheiros, gestos, palavras 
   Em
E só sinto vontade de 
  C           Am
Ficar mais um pouco
  C           Am
Ficar mais um pouco
D                        Em
Passar a noite em outro sofá

( G  Em )

Riff
                                              ↑ ↓    ↑      ↑ ↓    ↑
E|---------------------------------------------0-0----0------0-0----0---|
B|---------------------------------0-3---------0-0----0------0-0----0---|
G|-----2p0---------0-----2p0-----------2p0-----0-0----0------0-0----0---|
D|------------0-2---------------0--------------2-2----2------2-2----2---|
A|------------------------------------------2--2-2-2--2---2--2-2-2--2---|
E|--3--3---3--3-3--3--3--3---3--3--3-3-3----0--0-0-0--0---0--0-0-0--0---|

G                                   Em
Por mais que eu queira já não posso mais 
G                                           Em
Fingir que não ouço no som de sua voz um convite que agita o peito
G
E sou carne e osso, pulso, grito, choro, puxo o ar
    Em
Respiro fundo

   G
Detesto a cidade
Detesto a cidade
   Em
E mesmo assim 
  G
Alucino em cores, cheiros, gestos, palavras 
   Em
E só sinto vontade de 
  C           Am
Ficar mais um pouco
  C           Am
Ficar mais um pouco
D                           Em
Mas vou amanhecer em outro lugar

( G  Em )

Riff
                                              ↑ ↓    ↑      ↑ ↓    ↑
E|---------------------------------------------0-0----0------0-0----0---|
B|---------------------------------0-3---------0-0----0------0-0----0---|
G|-----2p0---------0-----2p0-----------2p0-----0-0----0------0-0----0---|
D|------------0-2---------------0--------------2-2----2------2-2----2---|
A|------------------------------------------2--2-2-2--2---2--2-2-2--2---|
E|--3--3---3--3-3--3--3--3---3--3--3-3-3----0--0-0-0--0---0--0-0-0--0---|
Página 1 / 1

Letras e título
Acordes e artista

resetar configurações
OK