Cifra Club

Aprenda

Can't stop lovin' you

Van Halen

Tab de baixo: Principal
Van Halen
Can't Stop Loving You
Album:Balance


::Intro:: (start at “Hey”)
 |                 2x||                 2x|
G|-------------------||-------------------||-----------------|-----------
D|*-----------------*||*-----------------*||-----------------|-----------
A|*-----------------*||*-----------------*||-5-5-5-5-5-5-5-5-|-7-7-7-7-7-
E|--5-5-5-5-5-5-5-5--||--2-2-2-2-2-2-2-2--||-----------------|-----------

        |                 2x|
-------||-------------------|
-------||*-----------------*|
-7-7-7-||*-----------------*|
-------||--5-5-5-5-5-5-5-5--|

::Verse 1:: (“there’s a time and place for everything...”)
 |                 2x||                 2x|
G|-------------------||-------------------||-----------------|-----------
D|*-----------------*||*-----------------*||-----------------|-----------
A|*-----------------*||*-----------------*||-5-5-5-5-5-5-5-5-|-7-7-7-7-7-
E|--5-5-5-5-5-5-5-5--||--2-2-2-2-2-2-2-2--||-----------------|-----------

        |                 2x||                 2x|
-------||-------------------||-------------------||-----------------|-----
-------||*-----------------*||*-----------------*||-----------------|-----
-7-7-7-||*-----------------*||*-----------------*||-5-5-5-5-5-5-5-5-|-7-7-
-------||--5-5-5-5-5-5-5-5--||--2-2-2-2-2-2-2-2--||-----------------|-----

              
-------------|
-------------|
-7-7-7-7-7-7-|
-------------|

::Prechorus:: (“oh could you let it be”)
 |                 2x||                 2x||                    2x||
G|-------------------||-------------------||----------------------||------
D|*-----------------*||*-----------------*||*---------------------||*-----
A|*-----------------*||*-5-5-5-5-5-5-5-5-*||*-2-2-2-2-2-2-2--2-2-*||*-----
E|--2-2-2-2-2-2-2-2--||-------------------||----------------------||--3-3-

            2x|
--------------|-----------------|-------------------------|
-------------*|-----------------|-------------------------|
-------------*|-----------------|-------------------------|
-3-3-3-3-3-3--|-0-0-0-0-0-0-0-0-|-12-12-12-12-12-12-12-12-|

::Chorus:: (“i can’t stop loving you...”)
 |                 2x||                 2x|
G|-------------------||-------------------||-----------------|-----------
D|*-----------------*||*-----------------*||-----------------|-----------
A|*-----------------*||*-----------------*||-5-5-5-5-5-5-5-5-|-7-7-7-7-7-
E|--5-5-5-5-5-5-5-5--||--2-2-2-2-2-2-2-2--||-----------------|-----------
 
        |                 2x|
-------||-------------------|
-------||*-----------------*|
-7-7-7-||*-----------------*|
-------||--5-5-5-5-5-5-5-5--|

::Verse 2:: (“you can change your friends...”)
 |                 2x||                 2x|
G|-------------------||-------------------||-----------------|-----------
D|*-----------------*||*-----------------*||-----------------|-----------
A|*-----------------*||*-----------------*||-5-5-5-5-5-5-5-5-|-7-7-7-7-7-
E|--5-5-5-5-5-5-5-5--||--2-2-2-2-2-2-2-2--||-----------------|-----------

        |                 2x||                 2x|
-------||-------------------||-------------------||-----------------|-----
-------||*-----------------*||*-----------------*||-----------------|-----
-7-7-7-||*-----------------*||*-----------------*||-5-5-5-5-5-5-5-5-|-7-7-
-------||--5-5-5-5-5-5-5-5--||--2-2-2-2-2-2-2-2--||-----------------|-----

              
-------------|
-------------|
-7-7-7-7-7-7-|
-------------|

::Prechorus:: (“oh baby i’ll be there...”)
 |                 2x||                 2x||                 2x||
G|-------------------||-------------------||-------------------||----------
D|*-----------------*||*-----------------*||*-----------------*||*---------
A|*-----------------*||*-----------------*||*-----------------*||*---------
E|--7-7-7-7-7-7-7-7--||--8-8-8-8-8-8-8-8--||--5-5-5-5-5-5-5-5--||--1-1-1-1-

        2x|
----------||-----------------|-------------------------|
---------*||-----------------|-------------------------|
---------*||-----------------|-------------------------|
-1-1-1-1--||-0-0-0-0-0-0-0-0-|-12-12-12-12-12-12-12-12-|

::Chorus:: (“i can’t stop loving you...”)
 |                 2x||                 2x|
G|-------------------||-------------------||-----------------|-----------
D|*-----------------*||*-----------------*||-----------------|-----------
A|*-----------------*||*-----------------*||-5-5-5-5-5-5-5-5-|-7-7-7-7-7-
E|--5-5-5-5-5-5-5-5--||--2-2-2-2-2-2-2-2--||-----------------|-----------

        |                 2x|
-------||-------------------|
-------||*-----------------*|
-7-7-7-||*-----------------*|
-------||--5-5-5-5-5-5-5-5--|

::Bridge:: (“oh I’m so twisted and tied...”)
 |                 2x|                                     |
G|-------------------||-----------------|-----------------||--------------
D|*-----------------*||-----------------|-----------------||*-------------
A|*-----------------*||-----------------|-4-4-4-4---------||*-------------
E|--5-5-5-5-5-5-5-5--||-0-0-0-0-0-0-0-0-|---------5-5-5-5-||--7-7-7-7-7-7-

    2x|
------||-----------------|-------------------------|
-----*||-----------------|-------------------------|
-----*||-----------------|-------------------------|
-7-7--||-0-0-0-0-0-0-0-0-|-12-12-12-12-12-12-12-12-|
 
::Guitar solo and interlude::                             __________
                                      |                  |1st & 2nd
G|-----------------|-----------------||------------------|----------------
D|-----------------|-----------------||*-----------------|----------------
A|-5-5-5-5-5-5-5-5-|-7-7-7-7-7-7-7-7-||*-7-------7-------|-5--------------
E|-----------------|-----------------||------------------|----------------
   _____
  |3rd 
--|-----------------|
-*|-----------------|
-*|-----------------|
--|-5---------------|

::Verse 3:: (“and when it’s over...”)
 |                 2x||                 2x|
G|-------------------||-------------------||-----------------|-----------
D|*-----------------*||*-----------------*||-----------------|-----------
A|*-----------------*||*-----------------*||-5---------------|-7---------
E|--5----------------||--2----------------||-----------------|-----------

-------|-------------------|-------------------------|
-------|-------------------|-------------------------|
-------|-------------------|-12-12-12-12-12-12-12-12-|
-------|-5-----------------|-------------------------|

::Chorus:: (“i can’t stop loving you...”) 2x
 |                 2x||                 2x|
G|-------------------||-------------------||-----------------|-----------
D|*-----------------*||*-----------------*||-----------------|-----------
A|*-----------------*||*-----------------*||-5-5-5-5-5-5-5-5-|-7-7-7-7-7-
E|--5-5-5-5-5-5-5-5--||--2-2-2-2-2-2-2-2--||-----------------|-----------

        |                 2x|
-------||-------------------|
-------||*-----------------*|
-7-7-7-||*-----------------*|
-------||--5-5-5-5-5-5-5-5--|
Composição de Alex Van Halen / Eddie Van Halen / Michael Anthony / Sammy Hagar
22.165 exibições

0 comentários

Ver todos os comentários

Conseguiu tocar?

2 Tocaram 0 Ainda não

Grave um vídeo tocando Can't stop lovin' you e nos envie!

00:00 / 00:00
Outros vídeos desta música
Repetir Qualidade Automático
Outros vídeos desta música
00:00 / 00:00
Automático

Cifra Club Pro

Aproveite o Cifra Club com benefícios exclusivos e sem anúncios
Cifra Club Pro
Aproveite o Cifra Club com benefícios exclusivos e sem anúncios
OK