Dreams Solo

Van Halen

tom: C
Transcriber: Michele Caldaroni

  4:04
e|-----------10--10v-----------|-------------------10--10--12---------------|
B|--/13--13-----------13--13v--|----------/13--13--------------13--12--13v--|
G|-----------------------------|--------------------------------------------|
D|-----------------------------|--------------------------------------------|
A|-----------------------------|------12------------------------------------|
E|-----------------------------|--13----------------------------------------|

  4:10                   T       T       T       T          T       T       T       T
e|---------------12--13--13p5h8--13p5h8--13p5h8--13p5h8--|--15p5h8--15p5h8--15p5h8--15p5h8--|
B|-------13--15------------------------------------------|----------------------------------|
G|--/12--------------------------------------------------|----------------------------------|
D|-------------------------------------------------------|----------------------------------|
A|-------------------------------------------------------|----------------------------------|
E|-------------------------------------------------------|----------------------------------|

    T       T       T       T                                   4:17
e|--12p5h8--12p5h8--12p5h8--12p5h8--|--9/------15---15---15---20v----|
B|----------------------------------|------/17b--17b--17b--17b-------|
G|----------------------------------|--------------------------------|
D|----------------------------------|--------------------------------|
A|----------------------------------|--------------------------------|
E|----------------------------------|--------------------------------|


Mail me at * for any mistake!
Página 1 / 1

Letras e título
Acordes e artista

resetar configurações
OK