Palpite

Vanessa Rangel

Composição de: Vanessa Rangel
tom: A
[Intro] E  F#/E  A9  E
        E  F#/E  A9  E
        E  F#/E  A9  E
        E  F#/E  A9  E
 
E|-------------------------------------------------|
B|-------------------------------------------------|
G|-------------------------------------------------|
D|-------------------------------------------------|
A|-2h4p2-------------------------------------------|
E|-------4-2h4p2--0--------------------------------|

E|--7-------------------------------4b5-4----------|
B|----7b9r7-5~------------7~--------------5b7r5----|
G|----------------------------4-4/6-------------4~-|
D|--------------9/8p6-6/8--------------------------|
A|-------------------------------------------------|
E|-------------------------------------------------|

[Primeira Parte]

E                       
 Tô com saudade de você 
                F#/E
Debaixo do meu cobertor
A9                 Am       E
 E te arrancar suspiros, fazer amor
E                       
 Tô com saudade de você 
      F#/E
Na varanda em noite quente
A9             Am 
 E o arrepio frio 

[Segunda Parte]

           C#m  
Que dá na gente 
             A
Truque do desejo
           C#m 
Guardo na boca 
            A
O gosto do beijo

[Terceira Parte]

    C       D          C            D
Eu sinto a falta de você, me sinto só

[Refrão]

    E                F#/E  
E aí, será que você volta? 
              A9    Am     E
Tudo à minha volta     é triste
    E               F#/E    
E aí, o amor pode acontecer 
     A9        Am     E
De novo pra você, palpite

[Quarta Parte]

E                       
 Tô com saudade de você 
          F#/E
Do nosso banho de chuva
A9                  Am             E
 Do calor na minha pele, da língua tua
E                            F#/E
Tô com saudade de você censurando o meu vestido
A9              Am 
 As juras de amor  

[Segunda Parte]

            C#m  
Ao pé do ouvido
             A
Truque do desejo
           C#m 
Guardo na boca 
            A
O gosto do beijo

[Terceira Parte]

    C       D          C            D
Eu sinto a falta de você, me sinto só

[Refrão]

    E                F#/E  
E aí, será que você volta? 
              A9    Am     E
Tudo à minha volta     é triste
    E               F#/E    
E aí, o amor pode acontecer 
     A9        Am     E
De novo pra você, palpite

[Solo] E  F#/E  A9  E
       E  F#/E  A9  E

E|--7-------------------------------4b5-4----------|
B|----7b9r9-5~------------7~--------------5b7r5----|
G|----------------------------4-4/6-------------4~-|
D|--------------9/8p6-6/8--------------------------|
A|-------------------------------------------------|
E|-------------------------------------------------|

[Terceira Parte]

    C       D          C            D
Eu sinto a falta de você, me sinto só

[Refrão]

    E                F#/E  
E aí, será que você volta? 
              A9    Am     E
Tudo à minha volta     é triste
    E               F#/E    
E aí, o amor pode acontecer 
     A9        Am     E
De novo pra você, palpite

    E                F#/E  
E aí, será que você volta? 
              A9    Am     E
Tudo à minha volta     é triste
    E               F#/E    
E aí, o amor pode acontecer 
     A9        Am     E
De novo pra você, palpite
Página 1 / 1

Letras e título
Acordes e artista

resetar configurações
OK