Cifra Club

Mary had a little lamb

Stevie Ray Vaughan

Cifra: Principal (violão e guitarra)
exibições 47.852
Tom: E
INTRO:

e|-------------------------0-0-...------------------0-0-...----
B|-------------------------3-3-...------------------3-3-...----
G|-------------------------1-1-...------------------1-1-...----
D|--------0--------------2-2-2-...----------------2-2-2-...----
A|--0--2-----0--2--0------------------2-2-2-2-0----------------
E|--------------------3-------------------------3--------------
                                
-------------------------------3-3-...----------------------------0-0-...---
-------------------------------2-2-...----------------------------3-3-...---
--------------0-0---2h4p2p0----2-2-...----------------------------1-1-...---
--------2-0h2------------------2-2-...-----------0--------------2-2-2-...---
--2h4-4---------------------0--------------0--2-----0--2--0-----------------
-------------------------------------------------------------3--------------
                                                   
--------------------------3-----------------------3-3-...---|
----------------------------5p3---3-3/5-3---------3-3-...---|
------------------2-2-----------4---2/4---4-2-0---1-1-...---|
------------------------------------------------2-2-2-...---|
---2-2-2-2-0---2--------0-----------------------------------|
-------------3--------2-------------------------------------|

e|-------------------------0-0-...------------------0-0-...----
B|-------------------------3-3-...------------------3-3-...----
G|-------------------------1-1-...------------------1-1-...----
D|--------0--------------2-2-2-...----------------2-2-2-...----
A|--0--2-----0--2--0------------------2-2-2-2-0----------------
E|--------------------3-------------------------3--------------

----------------3-3-...----------------------------0-0-...----
----------------2-2-...----------------------------3-3-...----
----------------2-2-...----------------------------1-1-...----
----------------2-2-...------------0-------------2-2-2-...----
--2-2-2-2-0---0--------------0--2-----0--2--0-----------------
------------3----------------------------------3--------------

-0-----0----------2-2----3-----------------------3-3-...---|
----3-----3-------4-4------5p3---3-3/5-3---------3-3-...---|
----------------2-2-2----------4---2/4---4-2-0---1-1-...---|
----------------4-4-4--------------------------2-2-2-...---|
------------0h2--------0-----------------------------------|
-----------------------------------------------------------|

                  A7
Mary had a little lamb
                         E7
It's fleece as white as snow, yea
                          B7
Everywhere the Child went
A7                            E7
  The little lamb was sure to go, yeah

                          A7
He followed her to school one day
                       E7
And broke the teachers rule
                     B7
What a time did they have
A7              E7
  That day at school

[SOLO]

E7        A7
  Tisket! Tasket, baby!
                    E7
A green and yellow basket
                    B7
Sent a letter to my baby
A7          E7
On my way I past it


FINAL:

e|-------------------------0-0-...------------------0-0-...----
B|-------------------------3-3-...------------------3-3-...----
G|-------------------------1-1-...------------------1-1-...----
D|--------0--------------2-2-2-...----------------2-2-2-...----
A|--0--2-----0--2--0------------------2-2-2-2-0----------------
E|--------------------3-------------------------3--------------
                                
-------------------------------3-3-...----------------------------0-0-...---
-------------------------------2-2-...----------------------------3-3-...---
--------------0-0---2h4p2p0----2-2-...----------------------------1-1-...---
--------2-0h2------------------2-2-...-----------0--------------2-2-2-...---
--2h4-4---------------------0--------------0--2-----0--2--0-----------------
-------------------------------------------------------------3--------------
                                                   
-------------------2------3-----------------------3-3-...---|
-------------------4-4------5p3---3-3/5-3---------3-3-...---|
-----------------2--------------4---2/4---4-2-0---1-1-...---|
------------------------------------------------2-2-2-...---|
---2-2-2-2-0---2--------0-----------------------------------|
-------------3----------------------------------------------|
Acordes para:
    Composição: Buddy Guy / Stevie Ray Vaughan Colaboração e revisão:
    • David Freitas
    • igor pimenta

    0 comentários

    mostrar mais comentários

    Conseguiu tocar?

    0 tocaram 0 ainda não

    Grave um vídeo tocando Mary had a little lamb e mande pra gente!

    00:00 / 00:00
    outros vídeos desta música
    repetir qualidade Automático
    Outros vídeos desta música
    00:00 / 00:00
    Automático
    OK