Cifra Club

Pride and Joy

Stevie Ray Vaughan

Cifra: Principal (violão e guitarra)
tom: Eb (forma dos acordes no tom de E) Afinação: Eb Ab Db Gb Bb Eb
[Intro] E

E|---0----0-0--0-0--0-7--7-7--7-7--7-7--7-7-|
B|-3-3/5--5-5--5-5--5-8--8-8--8-8--8-8--8-8-|
G|------------------------------------------|
D|------------------------------------------|
A|------------------------------------------|
E|------------------------------------------|

E|---0---0-0-0-0-0-0-0-0--------------------|
B|-3-3/5-5-5-5-5-5-5-5-5--------------------|
G|------------------------0-2-2b3r2--0------|
D|-------------------------------------2--0-|
A|------------------------------------------|
E|------------------------------------------|

( E  A  E  B  A  E )

[Ritmo]
E|-----------------------------------2----0-|
B|-----------------------------------0----0-|
G|-----------------------------------2----1-|
D|---------------------2--2----------1----2-|
A|----------2--X-4---X----------2--X-2----2-|
E|-0--0-2h3-----------------2h3-----------0-|

E|--------------------------------2----0----|
B|--------------------------------0----2----|
G|--------------------------------2----2----|
D|------------------2--2----------1----2----|
A|-------2--X-4---X----------2--X-2----0----|
E|-0-2h3-----------------2h3-----------0----|

E|--------------------------------2----0----|
B|--------------------------------0----0----|
G|------------------2--2----------2----1----|
D|-------2--X-4---X----------2--X-1----2----|
A|-0-2h3-----------------2h3------2----2----|
E|-------------------------------------0----|

E|------------------------------------------|
B|------------------------------------------|
G|------------------------------------------|
D|------------------2--2--------------------|
A|-------2--X-4---X----------2--4-----------|
E|-0-2h3-----------------2h3----------------|

E|------------------------------------------|
B|-----3-----3-----3------------------------|
G|-2/4---2/4---2/4---4\2-2p0----------------|
D|------------------------------------------|
A|---------------------------0h2------------|
E|------------------------------------------|

E|------------------------------------------|
B|------------------------------------------|
G|------------------------------------------|
D|---0-1-2-0-----------------2--------------|
A|-2---------2-1-0h1p0---0------------------|
E|---------------------3---3---0------------|

E|------------------------------------------|
B|-1/3-3-3-3-3-3----------------------------|
G|-2/4-4-4-4-4-4--4\2p0---------------------|
D|------------------------------------------|
A|-----------------------------0-1-2--------|
E|----------------------0--0-4--------------|

[Riff 1]

E|------------------------------------------|
B|------------------------------------------|
G|------------------------------------------|
D|-------------0h1-2-------0h1-2------------|
A|-0h2-2-0h2-2-------0h2-2--------0-2-1-----|
E|------------------------------------------|

E|------------------------------------------|
B|------------------------------------------|
G|------------------------------------------|
D|-------------2----------------------------|
A|-0h1p0---0--------------------------------|
E|-------3---3---0--------------------------|

E|------------------------------------------|
B|-1/3-3-3-3-3-3----------------------------|
G|-2/4-4-4-4-4-4--4\2p0---------------------|
D|----------------------2-------------------|
A|------------------------------------------|
E|------------------------------------------|


[Primeira Parte]

             E7                                         
Well you've heard about love givin' sight to the blind 
 
My baby's lovin' cause the sun to shine 
           A7                            E7 
She's my sweet little thing, she's my pride and joy 
           B7               A7                   E7  B7
She's my sweet little baby, I'm her little lover boy 

        E7                              
Yeah I love my baby, my heart and soul 

Love like ours won't never grow old 
           A7                            E7 
She's my sweet little thing, she's my pride and joy 
           B7               A7                   E7  B7
She's my sweet little baby, I'm her little lover boy 

[Segunda Parte]

        E7
Yeah I love my baby, she's long and lean 
             
You mess with her, you'll see a man gettin' mean 
           A7                           E7 
She's my sweet little thing, she's my pride and joy 
           B7               A7                   E7  B7
She's my sweet little baby, I'm her little lover boy 

[Solo] E7  A7  E7  B7  A7  E7  B7
       E7  A7  E7  B7  A7  E7  B7

E|------------------------------------------|
B|-10/12-12-12-10/12-12-12-12-12-12-12------|
G|-11/13-13-13-11/13-13-13-13-13-13-13------|
D|------------------------------------------|
A|------------------------------------------|
E|------------------------------------------|

E|------------------------------------------|
B|-12-12-12-12-12--12/15-15-15-15-15-15-----|
G|-13-13-13-13-13--13/16-16-16-16-16-16-----|
D|------------------------------------------|
A|------------------------------------------|
E|------------------------------------------|

E|------------------------------------------|
B|-15-15-15-15-15-15-10/12-12-12-12-12-12---|
G|-16-16-16-16-16-16-11/13-13-13-13-13-13---|
D|------------------------------------------|
A|------------------------------------------|
E|------------------------------------------|

E|--------------------------------12--------|
B|-12-12-12-12-12-12-12--------12-----------|
G|-13-13-13-13-13-13-13--14b16--------------|
D|------------------------------------------|
A|------------------------------------------|
E|------------------------------------------|

E|-------12-12-------12-12-------12-12------|
B|-15b17-12-12-15b17-12-12-15b17-12-12------|
G|------------------------------------------|
D|------------------------------------------|
A|------------------------------------------|
E|------------------------------------------|

E|-15-15b17-15-12-------------12------------|
B|----------------12-------15----15---------|
G|-------------------14b16------------------|
D|------------------------------------------|
A|------------------------------------------|
E|------------------------------------------|

E|------------------------------------------|
B|------------------------------------------|
G|-14b-14b16r14p12----12--------------------|
D|-----------------14-----------------------|
A|------------------------------------------|
E|------------------------------------------|

E|------------------------------------------|
B|------------------------------------------|
G|-14b-14b-14b16r14p12----12~---------------|
D|---------------------14------14p12--------|
A|-----------------------------------14-----|
E|------------------------------------------|

E|----------12-----------------------0------|
B|-------15----15--------------------0------|
G|-14b16----------14\2-2b3r2p0---0h1--------|
D|-----------------------------2------------|
A|------------------------------------------|
E|------------------------------------------|

E|-----------2---2-2--3/15\--3-0------------|
B|---------------0-0------------------------|
G|---------2-----2-2------------3-2-3\2p----|
D|---------------1-1---------------------2--|
A|---0-1-2-------2-2------------------------|
E|-3-----------2--------------------------0-|

[Segunda Parte]

        E5 
Well I love my baby like the finest wine 

Stick with her until the end of time 
           A7                           E7 
She's my sweet little thing, she's my pride and joy 
           B7               A7                   E7  B7
She's my sweet little baby, I'm her little lover boy 

[Primeira Parte]

        E7                              
Yeah I love my baby, my heart and soul 

Love like ours won't never grow old 
           A7                           E7 
She's my sweet little thing, she's my pride and joy 
           B7               A7                    E7  B7
She's my sweet little baby, I'm her little lover boy 

[Final] E7  A7  E7  B7  A7  E7  B7  E7
00:00 / 00:00
Outros vídeos desta música
Repetir
Outros vídeos desta música
Composição de Stevie Ray Vaughan
Colaboração e revisão:
  • Thiago Almeida
  • Anna Gabriella
141.252 exibições
    • ½ Tom
    • A
    • Bb
    • B
    • C
    • Db
    • D
    • Eb
    • E
    • F
    • F#
    • G
    • Ab
  • Adicionar à lista

    0 comentários

    Ver todos os comentários

    Entre para oCifra Club PRO

    Tenha acesso a benefícios exclusivos no App e no Site

    • Chega de anúncios

    • Prioridade de compra em lançamentos

    • Mais recursos no app do Afinador

    • Atendimento Prioritário

    • Descontos nos produtos Cifra Club

    • Ajude a produzir mais conteúdo

    00:00 / 00:00

    Cifra Club Pro

    Aproveite o Cifra Club com benefícios exclusivos e sem anúncios
    Cifra Club Pro
    Aproveite o Cifra Club com benefícios exclusivos e sem anúncios
    OK