Notificações Amigos pendentes

      Velvet Revolver

      Slither

      59.366 exibições
      Tom: G
      Afinação: D A D G B E
      
      Parte 1
      
      Intro: guita 1 (Slash)
      
      Usa o Delay e bate com a palheta na primeira corda na região do corpo da guitarra, indo em direção do braço e voltando.
      
      
      E|-----2-----------0------------3------------2----------|--------2----2--------2----x--x--x--x---------|
      B|-----3-----------1------------3------------3----------|--------3----3---3----3----x--x--x--x---------|
      G|-----2-----------0------------0------------2----------|--------2--------2---------x--x--x--x---------|
      D|-----0-----------2------------0------------0----------|--------0-------------------------------------|
      A|-----------------3------------2-----------------------|----------------------------------------------|
      E|------------------------------3-----------------------|----------------------------------------------|
      
      
      E|-------0----0--------0-----x--x--x--x-----------------|------3----3-----3---x--x--x--x---------------|
      B|-------1----1---1----1-----x--x--x--x-----------------|------3----3--3--3---x--x--x--x---------------|
      G|-------0--------0----------x--x--x--x-----------------|------0-------0------x--x--x--x---------------|
      D|-------2----------------------------------------------|------0---------------------------------------|
      A|-------3----------------------------------------------|------2---------------------------------------|
      E|------------------------------------------------------|------3---------------------------------------|
      
      
      E|-----2--------(2)-------------------------------------|----------------------------------------------|
      B|-----3--------(3)-------------------------------------|----------------------------------------------|
      G|-----2--------(2)-------------------------------------|----------------------------------------------|
      D|-----0------------------------------------------------|------10----12/-------------------------------|
      A|------------------------------------------------------|------10--------------------------------------|
      E|------------------------------------------------------|----------------------------------------------|
      
      
      Intro: guita 2
      
      
      E|------------------------------------------------------|----------------------------------------------|
      B|------------------------------------------------------|----------------------------------------------|
      G|------------------------------------------------------|----------------------------------------------|
      D|--(0)-xxxxxxxxxxxxxxxxxxxxxxxxxxxxx-------------------|-----7----7----10--------12-------------------|
      A|------------------------------------------------------|-----5----5----8---------10-------------------|
      E|------------------------------------------------------|----------------------------------------------|
      
      
      E|------------------------------------------------------|----------------------------------------------|
      B|------------------------------------------------------|----------------------------------------------|
      G|------------------------------------------------------|----------------------------------------------|
      D|--7---7---10-10-7------------5------------------------|--7---7---10--7-12----------------------------|
      A|--5---5---8---8--5------------3-----------------------|--5---5---8---5--10---------------------------|
      E|------------------------------------------------------|----------------------------------------------|
      
      
      E|------------------------------------------------------|----------------------------------------------|
      B|------------------------------------------------------|----------------------------------------------|
      G|------------------------------------------------------|----------------------------------------------|
      D|--7---7---10--10-7------------------------------------|----------------------------------------------|
      A|--5---5---8---8--5------------------------------------|----------------------------------------------|
      E|------------------------------------------------------|----------------------------------------------|
      
      
      E|------------------------------------------------------|
      B|------------------------------------------------------|
      G|---------------------------5--------------------------|
      D|---0--3--4--0--6--7--0--5--0--6--7--0--5--0--3--4-----|  3x
      A|---0--3--4--0--6--7--0-----0--6--7--0--5--0--3--4-----|
      E|------------------------------------------------------|
      
      
      
      Guita 1
      
      
      
      Guita 1
      
      E|-------------------------------------------|
      B|-------------------------------------------|
      G|-------------------------------------------|
      D|-------------------------------------------|3X
      A|-0--3-4--0--6-7--0--10-0--6/7-0--5-0--3/4--|
      D|-0--3-4--0--6-7--0--10-0--6/7-0--5-0--3/4--|
      
      
      E|------------------------------------------|
      B|--------------9-10--13-10-----------------|
      G|----11-12-----------------12--12-10h11----|
      D|-12--------12---------------12------------|
      A|------------------------------------------|
      E|------------------------------------------|
      
      
      
      
      Escute música para pegar os acordes abafados
      Obs: não abafe no final de cada compasso nas notas F  F# , e no 4 compasso
      
      
      E|------------------------------------------------------|
      B|------------------------------------------------------|
      G|------------------------------------------------------|
      D|------------------------5-----------------------------| 3x
      A|---0--3--4--0--6--7--0-----0--6--7--0--5--0--3--4-----|
      E|------------------------------------------------------|
      
      
      E|------------------------------------------|
      B|--------------9-10--13-10-----------------|
      G|----11-12-----------------12--12-10h11----|
      D|-12--------12---------------12------------|
      A|------------------------------------------|
      E|------------------------------------------|
      
      
      Escute música para pegar os acordes abafados
      Obs: não abafe no final de cada compasso nas notas F  F# , e no 4 compasso
      
      
      E|------------------------------------------------------|
      B|------------------------------------------------------|
      G|---------------------------5--------------------------|
      D|---0--3--4--0--6--7--0--5--0--6--7--0--5--0--3--4-----|
      A|---0--3--4--0--6--7--0-----0--6--7--0--5--0--3--4-----|
      E|------------------------------------------------------|
      
      
      E|------------------------------------------|
      B|------------------------------------------|
      G|------------------------------------------|
      D|------------------------------------------|
      A|--------------5---------------------------|
      E|--0-3-4-0-6-7---6-7-5-3~------------------|
      
      
      E|------------------------------------------------------|
      B|------------------------------------------------------|
      G|---------------------------5--------------------------|
      D|---0--3--4--0--6--7--0--5--0--6--7--0--5--0--3--4-----|
      A|---0--3--4--0--6--7--0-----0--6--7--0--5--0--3--4-----|
      E|------------------------------------------------------|
      
      
      E|------------------------------------------|
      B|------------------------------------------|
      G|-------------------5----------------------|
      D|-----3-4----6-7---------6-7----5----4-3---|
      A|---5------5-----5-----5-----5-----5-------|
      E|------------------------------------------|
      
      
      
      Refrão:
      
      Guitarra Solo:
      
      E|------------------------------------------------------------|
      B|------------------------------------------------------------|
      G|------------------------------------------------------------|
      D|----------------------------10------------------------------|
      A|-----8--9------11--12--------------11--12------10-----8--9--|
      E|--10--------10----------10------10----------10-----10-------|
      
      
      E|------------------------------------------------------------|
      B|------------------------------------------------------------|
      G|------------------------------------------------------------|
      D|----------------------------10------------------------------|
      A|-----8--10------10--12-------------10--12-----10----9--10---|
      E|--10---------10----------10-----10---------10----10---------|
      
      
      E|------------------------------------------------------------|
      B|------------------------------------------------------------|
      G|------------------------------------------------------------|
      D|------------------9-----10----------9-----------------------|
      A|-----8--9-----12----------------12--------10------8---9-----|
      E|--10-------10-------10------10--------10------10------------|
      
      
      E|------------------------------------------------------------|
      B|------------------------------------------------------------|
      G|------------------------------------------------------------|
      D|---------------------------10-------------------------------|
      A|-----8--9------11--12-------------11--12------10------8--9--|
      E|--10-------10----------10------10---------10-----10---------|
      
      
      E|------------------------------------------------------|
      B|------------------------------------------------------|
      G|---------------------------5--------------------------|
      D|---0--3--4--0--6--7--0--5--0--6--7--0--5--0--3--4-----| 3x
      A|---0--3--4--0--6--7--0-----0--6--7--0--5--0--3--4-----|
      E|------------------------------------------------------|
      
      
      E|------------------------------------------|
      B|--------------9-10--13-10-----------------|
      G|----11-12-----------------12--12-10h11----|
      D|-12--------12---------------12------------|
      A|------------------------------------------|
      E|------------------------------------------|
      
      
      E|------------------------------------------------------|
      B|------------------------------------------------------|
      G|---------------------------5--------------------------|
      D|---0--3--4--0--6--7--0--5--0--6--7--0--5--0--3--4-----| 8x
      A|---0--3--4--0--6--7--0-----0--6--7--0--5--0--3--4-----|
      E|------------------------------------------------------|
      
      
      Refrão:
      Guitarra Solo:
      
      E|---------------------------------------------------------|
      B|---------------------------------------------------------|
      G|---------------------------------------------------------|
      D|--------------------------10-----------------------------|
      A|-----8--9-----11--12-------------11--12------10----8--9--|
      E|--10-------10---------10------10---------10-----10-------|
      
      
      E|---------------------------------------------------------|
      B|---------------------------------------------------------|
      G|---------------------------------------------------------|
      D|----------------------------10---------------------------|
      A|-----8--10------10--12-------------10--12-----10----9-10-|
      E|--10---------10----------10-----10---------10----10------|
      
      
      E|---------------------------------------------------------|
      B|---------------------------------------------------------|
      G|---------------------------------------------------------|
      D|------------------9-----10-------9-----------------------|
      A|-----8--9-----12--------------12--------10------8---9----|
      E|--10------10---------10----10-------10------10-----------|
      
      
      E|---------------------------------------------------------|
      B|---------------------------------------------------------|
      G|---------------------------------------------------------|
      D|-------------------------10------------------------------|
      A|-----8--9----11--12-------------11--12-----10------8--9--|
      E|--10------10---------10------10---------10-----10--------|
      
      
      E|---------------------------------------------------------|
      B|---------------------------------------------------------|
      G|---------------------------------------------------------|
      D|-------------------------10------------------------------|
      A|-----8--9----11--12-------------11--12-----10------8--9--|
      E|--10------10---------10------10---------10-----10--------|
      
      
      E|---------------------------------------------------------|
      B|---------------------------------------------------------|
      G|---------------------------------------------------------|
      D|--------------------------10-----------------------------|
      A|-----8--10-----10--12------------10--12----10-----9--10--|
      E|--10--------10---------10-----10--------10-----10--------|
      
      
      E|---------------------------------------------------------|
      B|---------------------------------------------------------|
      G|---------------------------------------------------------|
      D|------------------9-----10-------9-----------------------|
      A|-----8--9-----12--------------12--------10------8---9----|
      E|--10------10---------10----10-------10------10-----------|
      
      
      E|---------------------------------------------------------|
      B|---------------------------------------------------------|
      G|---------------------------------------------------------|
      D|-------------------------10------------------------------|
      A|-----8--9----11--12-------------11--12-----10------8--9--|
      E|--10------10---------10------10---------10-----10--------|
      
      
      E|-----------|
      B|-----------|
      G|-----------|
      D|-----------|
      A|-----------|
      E|--10~~~----|
      
      
      Guitarra Solo repete a introdução (as palhetadas na primeira corda com o Delay ligado)
      
      
      Solo: (Utilizar Wah-Wah)
      
      E|------------------------------------------------
      B|-13b-10--15b-12--15b-15b-15b-15-13----13p15-13--
      G|-----------------------------------14-----------
      D|------------------------------------------------
      A|------------------------------------------------
      E|------------------------------------------------
      
      
      E|-15b(17)-15b(17)-15b(16)-15-14-15-14b-14-12-14p12-
      B|--------------------------------------------------
      G|--------------------------------------------------
      D|--------------------------------------------------
      A|--------------------------------------------------
      E|--------------------------------------------------
      
      
      E|----12-------------------------------------
      B|-15----13-15-12h13p12----12----12----------
      G|----------------------14----14----14/12/10-
      D|-------------------------------------------
      A|-------------------------------------------
      E|-------------------------------------------
      
      
      E|------------------10-------10-----------------------------------------
      B|---------------------10-13b---13p10----10-13-10---10-13p10---10-13p10-
      G|----12----10---12b------------------12b--------12b--------12b---------
      D|-12----12-------------------------------------------------------------
      A|----------------------------------------------------------------------
      E|----------------------------------------------------------------------
      
      
      E|------------------10-13p10---10-13p10---10-13p10------------
      B|----10-13p10--12b---------12b--------12b-----------10-13p10-
      G|-12b--------------------------------------------12b---------
      D|------------------------------------------------------------
      A|------------------------------------------------------------
      E|------------------------------------------------------------
      
      
      E|-13b-13b-13b-10------------------------------------------
      B|---------------13p10-------------------------------------
      G|---------------------12b-10----10------------------------
      D|----------------------------12----12-10-------------\12~-
      A|----------------------------------------12-11-10-8-------
      E|---------------------------------------------------------
      
      
      E|------------------------------------------------------|
      B|------------------------------------------------------|
      G|---------------------------5--------------------------|
      D|---0--3--4--0--6--7--0--5--0--6--7--0--5--0--3--4-----| 3x
      A|---0--3--4--0--6--7--0-----0--6--7--0--5--0--3--4-----|
      E|------------------------------------------------------|
      
      
      E|------------------------------------------------------|
      B|------------------------------------------------------|
      G|------------------------------------------------------|
      D|---0--10--12--0--9--10--0--7--0--6--7--0--5--0--------|
      A|---0--10--12--0--9--10--0--7--0--6--7--0--5--0--8--9--|
      E|------------------------------------------------8--9--|
      
      
      
      Refrão:
      Guitarra Solo:
      
      
      E|------------------------------------------------------|
      B|------------------------------------------------------|
      G|------------------------------------------------------|
      D|-------------------------10---------------------------|
      A|-----8--9-----11--12-----------11--12-----10----8--9--|
      E|--10-------10---------10----10---------10----10-------|
      
      
      E|------------------------------------------------------|
      B|------------------------------------------------------|
      G|------------------------------------------------------|
      D|-------------------------10---------------------------|
      A|-----8--10-----10--12----------10--12----10----9-10---|
      E|--10--------10--------10----10--------10----10--------|
      
      
      E|------------------------------------------------------|
      B|------------------------------------------------------|
      G|------------------------------------------------------|
      D|------------------9-----10-------9--------------------|
      A|-----8--9-----12--------------12-------10------8---9--|
      E|--10------10--------10-----10------10------10---------|
      
      
      E|------------------------------------------------------|
      B|------------------------------------------------------|
      G|------------------------------------------------------|
      D|-------------------------10---------------------------|
      A|-----8--9-----11--12-----------11--12-----10----8--9--|
      E|--10-------10---------10----10---------10----10-------|
      
      
      E|------------------------------------------------------|
      B|------------------------------------------------------|
      G|------------------------------------------------------|
      D|-------------------------10---------------------------|
      A|-----8--9-----11--12-----------11--12-----10----8--9--|
      E|--10-------10---------10----10---------10----10-------|
      
      
      E|------------------------------------------------------|
      B|------------------------------------------------------|
      G|------------------------------------------------------|
      D|-------------------------10---------------------------|
      A|-----8--10-----10--12----------10--12----10----9-10---|
      E|--10--------10--------10----10--------10----10--------|
      
      
      E|------------------------------------------------------|
      B|------------------------------------------------------|
      G|------------------------------------------------------|
      D|------------------9-----10-------9--------------------|
      A|-----8--9-----12--------------12-------10------8---9--|
      E|--10------10--------10-----10------10------10---------|
      
      
      E|------------------------------------------------------|
      B|------------------------------------------------------|
      G|------------------------------------------------------|
      D|-------------------------10---------------------------|
      A|-----8--9-----11--12-----------11--12-----10----8--9--|
      E|--10-------10---------10----10---------10----10-------|
      
      
      E|------------------------------------------------------|
      B|------------------------------------------------------|
      G|---------------------------5--------------------------|
      D|---0--3--4--0--6--7--0--5--0--6--7--0--5--0--3--4-----| 3x
      A|---0--3--4--0--6--7--0-----0--6--7--0--5--0--3--4-----|
      E|------------------------------------------------------|
      
      
      E|-------------10-9---------------------------|
      B|------------------13-10-------10------------|
      G|----11-12---------------12-12----12-10------|
      D|-12-------12---------------------------12\--|
      A|--------------------------------------------|
      E|--------------------------------------------|
      

      Comentários 5

      140 .
      • marcos4555 marcos4555: Em 01/08/2012 17:52

        Afff seu escroto tirou essa musica de ouvido porra da pra tira o solo de ouvido usando a escala

      • 47 47: Em 07/06/2012 15:57

        Mano, quem sabe tocar pode improvisar sobre qualquer solo mano, ae diz que ta em C, oche, só solar com as notas da escala de C, ora,

      • d.l. d.l.: Em 08/12/2011 12:58

        video aulaa

      • Slash Slash: Em 20/04/2011 15:00

        bota o solo logo cara

      • AJ » AJ »: Em 20/04/2011 10:44

        kde o sooloooooo???

      140 cancelar

      conseguiu tocar?

      covers

      Grave um vídeo tocando Slither e mande pra gente!

      Ex.: http://www.youtube.com/watch?v=0IvSvIwGdwk
      ver covers de outras músicas »
      0:00 / 0:00

      Capítulos

        1 versão de bateria exibições contribuição e correção
        play/pausefechar subir/descer velocidade
        6ª corda E5ª corda A4ª corda D3ª corda G2ª corda B1ª corda E
          acordes
          publicidade
          fechar
          ok