Cifra Club

Aprenda

Sunday Morning

The Velvet Underground

Cifra: Principal (violão e guitarra)
tom: G
Verso 1:
G      C
Sunday morning
G          C
Praise the dawning
G           Em
It's just a restless feeling
Am    D
By my side
G     C
Early dawning
G      C
Sunday morning
G             Em
It's just the wasted years
   Am     D
So close  behind
(Refrão)
G           C
Watch out, the worlds behind you
G                 C
Theres always someone around you
         Am                  D
Who will call it's nothin at all

Verso 2:
G      C
Sunday Morning
G       C
And I'm falling
G          Em
I've got a feeling
        Am     D
I dont want to know.
G     C
Early dawning
G      C
Sunday morning
G               Em
It's all the streets you crossed
        Am   D
Not so long ago
(Refrão)
G          C
Watch out the world's behind you
G                 C
Theres always someone around you
         Am                   D
Who will call it's nothin' at all

(Solo)

refrão:
G          C
Watch out the worlds behind ya
G                 C
Theres always someone around ya
         Am                  D
Who will call it's nothin at all

G      C
Sunday morning (4x)

Solo:
        G                  C
D|--------------------------------------------
A|------------------------------1---1-----1---
F|------------------------------0h2-0-0---0---
C|------0--0h2-0---0-----2-0-2--------0h2-----
G|---------------2-----3----------------------
D|--3-----------------------------------------

    G                  C
D|----------------------------------------------
A|---------------------------1--1---1-1-----1---
F|-----------------------0---0--0h2-2-2b4r2-0---
C|--0--0--0h2--0---0-----0h2--------------------
G|---------------2-----3------------------------
D|----------------------------------------------

    G             D       Em
D|-------------------------------------------
A|-------------------------------------------
F|-------------------------------------------
C|------0--------0-----------0-0-0h2-0---0---
G|----2--------0---------0h2-----------2-----
D|--3-----3--2-----2---0---------------------

    A                        D                     G
D|-------------------------------------------------------
A|-------------------------------------------------------
F|--------0-0------0-0h2-0-----2-------------------------
C|----0h2------0h2-----------0---0-0--0h2-0--------------
G|--0---------------------------------------2-0----------
D|-------------------------------------------------3-----
Composição de John Cale / Lou Reed
Colaboração e revisão:
30.988 exibições
    • ½ Tom
    • A
    • Bb
    • B
    • C
    • Db
    • D
    • Eb
    • E
    • F
    • F#
    • G
    • Ab
  • Adicionar à lista

    0 comentários

    Ver todos os comentários

    Conseguiu tocar?

    11 Tocaram 0 Ainda não

    Grave um vídeo tocando Sunday Morning e nos envie!

    00:00 / 00:00
    Outros vídeos desta música
    Repetir Qualidade Automático
    Outros vídeos desta música
    00:00 / 00:00
    Automático

    Cifra Club Pro

    Aproveite o Cifra Club com benefícios exclusivos e sem anúncios
    Cifra Club Pro
    Aproveite o Cifra Club com benefícios exclusivos e sem anúncios
    OK