Warhead

Venom

Composição de: Conrad Lant / Jeff Dunn / Tony Bray
tom: B
Okay here it is 
I couldn't find the tab anywhere 
so I decided to tab it myself.
So this will be a pretty rough
transcription. I will just be transcribing the riffs right now
later on i will make a better version
If you have any questions comments
or corrections please email me at
*

Tuning is down 1 and 1 half steps for this song
/=slide
a.h= artificial harmonics
~=vibrato


riff1-4

e-------------------------------------------------------------------
b-------------------------------------------------------------------
g---13~*
d------------14--13--12-----9-----7------5---------------------------
a-------------------------------------------------------------------
E-------------------------------------------------------------------

riff2
e-------------------------------------------------------------------
b-------------------------------------------------------------------
g-------------------------------------------------------------------
d--4---3----3/--9- 10---8---9---8-----------------------------------
a--4---3----3/--9--10---8---9---8-----------------------------------
E--2---1----1/--7--8----6---7---6-----------------------------------

riff3
e-------------------------------------------------------------------
b-------------------------------------------------------------------
g-------------------------------------------------------------------
d-----------4--3----------------------------------------------------
a---------------------------3--2------------------------------------
E--0--2--0---------0--2--0------------------------------------------
Página 1 / 1

Letras e título
Acordes e artista

resetar configurações
OK