Eu Sou Doidão

Ventania

Tom: E
INTRO:

e|-|---12--15-14-12--10--10h12-10------------0-5--5h7-5-------------0---0-----|
B|-|------------------------------12-10-8---------------7-5s3-0-3s5---5--3--0-|
G|-|--------------------------------------9-----------------------------------|
D|-|--------------------------------------------------------------------------|
A|-|--------------------------------------------------------------------------|
E|-|--------------------------------------------------------------------------|

                                                            E
e|-|----------------------------------------------------------------------------0-|
B|-|----------------------------------------------------------------------------0-|
G|-|2-2-4-2-2--2-4-2-2--2-2--2-2-2-4-2------------------------------------------1-|
D|-|0-0-0-0-0--0-0-0-0--0-0--0-0-0----4-2-2-4-2-2--2-4-2-2--2-2--2-2-2-4-2---2--2-|
A|-|------------------------------------0-0-0-0-0--0-0-0-0--0-0--0-0-0----4-2---2-|
E|-|----------------------------------------------------------------------------0-|


    E        A7               B7        E
Me toca no ouvido um som que faz eu viajar
    E         A7          B7           E         
Um solo de guitarra vai tocando sem parar
    E               A7          B7          E   
Às vezes escuto um grito mas eu posso explicar


[refrão] 2X

           F#
Eu sou doidão
E       B7    E  
Não vou me curar

       E        A7        B7          E  
Se eu ando desligado não vou parar no ar
   E         A7         B7            E
Estou comunicando com satélite "estrelar”
E           A7      B7        E
Eeeeiii seu moço do disco voador
    E         A7      B7         E
Me leve com você pra donde você for


[refrão]  2X


A7   B7   E
Página 1 / 1

Letras e título
Acordes e artista

resetar configurações
OK