Cifra Club

Aprenda

Sonho de um louco

Ventania

Cifra: Principal (violão e guitarra)
Tom: G
E |-------0------------    --------0--5--7--8--7--5--3--3h5--3h5-3h5-
B |-----1---1----0h1---    ------1-----------------------------------
G |---2-------2--------    ----2-------------------------------------
D |--------------------    ------------------------------------------
A |-0--------------0---    -0----------------------------------------
E |--------------------    ------------------------------------------

E |-------0------------    --------0--5--7--8/10--8--7--5--3--3h5--3h5-3h5--
B |-----1---1----0h1---    ------1------------------------------------------
G |---2-------2--------    ----2--------------------------------------------
D |--------------------    -------------------------------------------------
A |-0--------------0---    -0-----------------------------------------------
E |--------------------    -------------------------------------------------

E |-------0----------------0----------------------3--------------3------------
B |-----1---1----0h1-----1---3--1--0------------3---3----------3---5--3--1/3--
G |---2-------2--------2-------------2--------0-------0------0---------------4
D |---------------------------------------------------------------------------
A |-0--------------0----------------------------------------------------------
E |--------------------------------------0h3-------------0h3------------------     (2x)

          Am
E |-------0------------
B |-----1---1----0h1---
G |---2-------2--------
D |--------------------
A |-0--------------0---
E |--------------------

(na musica inteira ele segue um dedilhado mais ou menos assim)

                 G                              Am
E |-------------3---------------3-------------------0----------------0-----------|
B |-----------3---3-----------3---3---------------1---1---0h1------1---1---------|
G |---------0-------0-------0-------0-----------2-------2--------2-------2-------|
D |------------------------------------------------------------------------------|
A |---------------------------------------0-------------------0------------------|
E |---0h3-3--------------3-------------------------------------------------------|

   G                   Am
Nasceu de uma estrela cadente
   G                        Am
Brilho nos olhos de um sonhador
   G                     Am
Um mundo de paz, tão diferente
  G                      Am
Era-se o tempo que você sonhou
 G                             Am
Sei que até mesmo, você também lembra
 G                    Am
Cantavamos "canção de paz"
  G              Am
Tocava gaita e violão
  G                                     Am
e as batidas das mãos acompanhavam a canção...
  G                Am
Sentados perto do fogo
  G                Am
Louco de longe eu vinha
  G                 Am
Louco! de longe eu vinha
  G                      Am
Meus cabelos compridos, o meu colar
  G                                 Am
A vida era uma viagem, a estrada eu seguia
  G                                  Am
A vida era uma viagem, a estrada eu seguia
  G                      Am
De passos leves e pé no chão
  G                            Am
Cabelos compridos, mochila e violão
G            Am
OH! oh oh oh uuhh!

(intro)
Colaboração e revisão:
  • Moacir Filho
  • carlito oliveira
  • allan
133.740 exibições
    • ½ Tom
    • A
    • Bb
    • B
    • C
    • Db
    • D
    • Eb
    • E
    • F
    • F#
    • G
    • Ab
  • Adicionar à lista

    0 comentários

    Mostrar mais comentários

    Conseguiu tocar?

    10 Tocaram 0 Ainda não

    Grave um vídeo tocando Sonho de um louco e mande pra gente!

    00:00 / 00:00
    outros vídeos desta música
    repetir qualidade Automático
    Outros vídeos desta música
    00:00 / 00:00
    Automático

    Cifra Club Pro

    Aproveite o Cifra Club com benefícios exclusivos e sem anúncios
    7 dias grátis
    Cifra Club Pro
    Aproveite o Cifra Club com benefícios exclusivos e sem anúncios
    7 dias grátis
    OK