Santa Sampa

Vespas Mandarinas

Composição de: Bernardo Vilhena / Thadeu Meneghini
tom: A
Intro: Fm  G#  Eb  C# (2X)

E|----------------------------------------------------------|
B|----------------------------------------------------------|
G|----------------------------------------------------------|
D|----------------------------------8-----8-------6-----6---|
A|-----3------3------6------6---6-6---6-6---6-4-4---4-4-----|
E|-1-1---1--1--1-4-4---4--4---4-----------------------------|

Fm    G#
Andar à toa
Eb
Entrar num bar
C#
Ouvir um som
Fm    G#
Ficar de boa
Eb
Dar um rolê
C#
Não tô legal

Fm    G#
Tédio vem sem aviso
Eb
Sou eu comigo
C#
Nem sempre igual
Fm         G#
Nada haver ficar ligando
Eb
Sou invisível
C#
Não sou ninguém

Fm           Eb
Deixa eu caminhar
C#
Santa sampa
      Fm          Eb
Entre mulheres elegantes
C#
Deixa eu caminhar

( Fm  G#  C# ) 

      C#
Andar à toa

( Fm  G# )

Eb
Deixa eu caminhar

Fm    G#
Tédio vem sem aviso
Eb
Sou eu comigo
C#
Nem sempre igual
Fm         G#
Nada haver ficar ligando
Eb
Sou invisível
C#
Não sou ninguém

Fm           Eb
Deixa eu caminhar
C#
Santa sampa
      Fm          Eb
Entre mulheres elegantes
C#
Deixa eu caminhar

G#           A#m
A paranóia vai ter um final
Fm               C#
Final feliz e um beijo fatal
G#             A#m
A nossa história não tem nada igual
Fm                     C#  C#m
A gente faz nosso carnaval

( Fm  G#  C# )

      C#
Andar à toa

( Fm  G# )

C#
Deixa eu caminhar

( Fm  G#  C# )

      C#
Andar à toa

( Fm  G# )

C#
Deixa eu caminhar

Fm           Eb
Deixa eu caminhar
C#
Santa sampa
      Fm          Eb
Entre mulheres elegantes
C#
Deixa eu caminhar

Riff do Refrão:
E|------------------------|
B|------------------------|
G|---5h6--5-----5h6--5----|
D|-----------6------------|
A|------------------------|
E|------------------------|
Página 1 / 1

Letras e título
Acordes e artista

resetar configurações
OK