Cifra Club

Lampião Das Estrelas

Victor Chaves

Cifra: Principal (violão e guitarra)
tom: G
              G            
Coisas que o tempo não desfaz
             C
Simples felicidade
              D
O carinho do vento nas folhas 
       C                            G
É meu beijo em seus cabelos com saudade
                            
Vou deixar meu querer caminhar
                     C 
Pelos campos dos sonhos
                 D
Onde deuses profanos
                C                       G
Ficam bem à vontade, como se fossem os donos

      C                     D
Vou dizer, sem nenhum pestanejo
           G                     C
Acharia você no meio de mil pessoas
               D                      C
Lampião das estrelas, é assim que te vejo
                D                      G
É o sol das manhãs e o frescor das garoas

[TAB - Solo 1]

E|-/7-7-7-7-7-7---7/10-10-10-10-10-10--10/12-12-12-12--|
B|-/8-8-8-8-8-8---8/12-12-12-12-12-12--12/13-13-13-13--|
G|-----------------------------------------------------|
D|-----------------------------------------------------|
A|-----------------------------------------------------|
E|-----------------------------------------------------|

E|-12-12--10-10-10-5-5-5--5/7-7-7-7-7-7----------------|
B|-13-13--12-12-12-7-7-7--7/8-8-8-8-8-8----------------|
G|-----------------------------------------------------|
D|-----------------------------------------------------|
A|-----------------------------------------------------|
E|-----------------------------------------------------|

E|-7/10-10-10-10-10-10--12-12-12-12-12-12--------------|
B|-8/12-12-12-12-12-12--11-11-11-11-11-11--------------|
G|-----------------------------------------------------|
D|-----------------------------------------------------|
A|-----------------------------------------------------|
E|-----------------------------------------------------|

E|-/15-15-15-15-15-15-15-15-15-15\---------------------|
B|-/15-15-15-15-15-15-15-15-15-15\---------------------|
G|-----------------------------------------------------|
D|-----------------------------------------------------|
A|-----------------------------------------------------|
E|-----------------------------------------------------|

       G
Vou deixar meu querer caminhar
                     C 
Pelos campos dos sonhos
                 D
Onde deuses profanos
                C                       G
Ficam bem à vontade, como se fossem os donos

      C                     D
Vou dizer, sem nenhum pestanejo
           G                     C
Acharia você no meio de mil pessoas
               D                      C
Lampião das estrelas, é assim que te vejo
                D                      G
É o sol das manhãs e o frescor das garoas

[TAB - Solo 2]

E|-----------------------------------------------------|
B|----------------------11--11---------11--------------|
G|---------------10h12---------------------12\---------|
D|--------10h12-----------------10/12------------------|
A|-10h12-----------------------------------------------|
E|-----------------------------------------------------|

E|-----------------------------------------------------|
B|-13b14r13--11------11---------11---------------------|
G|--------------12-----------------12\-----------------|
D|----------------------10/12--------------------------|
A|-----------------------------------------------------|
E|-----------------------------------------------------|

E|----------------------------------10-----------------|
B|--------------------------11--13------13--11---------|
G|---------------10--10h12----------------------12-----|
D|--------10h12----------------------------------------|
A|-10h12-----------------------------------------------|
E|-----------------------------------------------------|

E|---------10-----------------------------13-----------|
B|-11--13------13--11------11--13--13/15---------------|
G|---------------------12------------------------------|
D|-----------------------------------------------------|
A|-----------------------------------------------------|
E|-----------------------------------------------------|

E|-15--15b16r15--13------13--13h15--13-----------------|
B|-------------------15-----------------15--13--15-----|
G|-----------------------------------------------------|
D|-----------------------------------------------------|
A|-----------------------------------------------------|
E|-----------------------------------------------------|

E|-8/10--10\8------15--17--17b18--b18r17--15-----15h17-|
B|-8/10--10\8------16-------------------------17-------|
G|-----------------------------------------------------|
D|-----------------------------------------------------|
A|-----------------------------------------------------|
E|-----------------------------------------------------|

E|-15--17--17b18r17--15------15--15h17--15-------------|
B|-16--------------------17-----------------15h17--15--|
G|-----------------------------------------------------|
D|-----------------------------------------------------|
A|-----------------------------------------------------|
E|-----------------------------------------------------|

E|---------------------------------------3~------------|
B|-0--1p0----------------------------------------------|
G|--------2--0--2p0-----------0--2--2/4----------------|
D|-------------------2--0--2---------------------------|
A|-----------------------------------------------------|
E|-----------------------------------------------------|

             D                      C
Lampião das estrelas, é assim que te vejo
                D                     C    G
É o sol das manhãs e o frescor das garoas
00:00 / 00:00
Outros vídeos desta música
Repetir
Outros vídeos desta música
Composição de Victor Chaves
Colaboração e revisão:
  • Tainan Lima
  • João Goulart
1.892 exibições
    • ½ Tom
    • A
    • Bb
    • B
    • C
    • Db
    • D
    • Eb
    • E
    • F
    • F#
    • G
    • Ab
  • Adicionar à lista

    0 comentários

    Ver todos os comentários

    Entre para oCifra Club PRO

    Tenha acesso a benefícios exclusivos no App e no Site

    • Chega de anúncios

    • Prioridade de compra em lançamentos

    • Mais recursos no app do Afinador

    • Atendimento Prioritário

    • Descontos nos produtos Cifra Club

    • Ajude a produzir mais conteúdo

    00:00 / 00:00

    Cifra Club Pro

    Aproveite o Cifra Club com benefícios exclusivos e sem anúncios
    Cifra Club Pro
    Aproveite o Cifra Club com benefícios exclusivos e sem anúncios
    OK