Cifra Club

Cenários de Uma Ilusão

Victor Gandin

Cifra: Principal (violão e guitarra)
tom: G
Intro:
 Em7 D/F# Am7 C9 D4/G
E|---------------------------------------------------------------
B|---------------------------------------------------------------
G|---------------------------------------------------------------
D|---------------------------------------------------------------
A|----7/12-----12/10-------------5-------------------------------
E|-------------------------5-7-8----------3h5p3------------------

 G D/F# Am7 Am C7+ D
E|---------------------------------------------------------------
B|---------------------------------------------------------------
G|---------------------------------------------------------------
D|---------------------------------------------------------------
A|--9/12----5/7--------------5-----------------------------------
E|---------------------5-7-8------3------------------------------

G
O que será que está havendo
   D/F#
Com esse pobre coração
 Am7              Am
Parece até coisa de filme
  C7+             D
Cenários de uma ilusão

   G
Pensei que tinha descoberto
 D/F#
A fonte de uma emoção
Am7            Am
Mas estava no cenário errado
C7+             D   D4
Não passou de ficção

    G          D                 Am
E eu vi que era mesmo um filme, encenação
    C                 G
Você era a atriz principal
               D                Am
Que eu fui assistir no cinema central
          C                  G C/D D
Do lado esquerdo, mas do meu peito

     Em7              D/F#
Mas o filme não passou mesmo de mentira
       Am7
Não foi nada do que eu quis
       C9         D4/G
O final não era feliz

   Em7       D/F#
Mas deixa pra lá
           Am7
Quem finge amar
     C9         D4
Não encontra ninguém pra gostar

G
Não era amor
D
Não era não
     Am
O que era então?
   C     D
Era nada, nada não

G
Não era amor
D
Não era não
     Am
O que era então?
      C             D       G Em7
Nada além de um filme de ficção


G                D/F#
Interpretou bem demais
                  Am7
Acabou com a minha paz
      Am      C7+
O crédito subiu
           D
Minha ficha caiu

(solo)

 G D/F# Am7 Am C7+ D
E|---------------------------------------------------------------
B|---------------------------------------------------------------
G|---------------------------------------------------------------
D|---------------------------------------------------------------
A|------------9/12----5/7--------------5-------------------------
E|-3h5p3-------------------------5-7-8-----0---------------------

     Em7    (...)
Mas o filme (...)
00:00 / 00:00
Outros vídeos desta música
Repetir
Outros vídeos desta música
Composição de Victor Gandin
Colaboração e revisão:
  • Victor
25 exibições
    • ½ Tom
    • A
    • Bb
    • B
    • C
    • Db
    • D
    • Eb
    • E
    • F
    • F#
    • G
    • Ab
  • Adicionar à lista

    0 comentários

    Ver todos os comentários

    Conseguiu tocar?

    0 Tocaram 0 Ainda não

    Grave um vídeo tocando Cenários de Uma Ilusão e nos envie!

    Entre para oCifra Club PRO

    Tenha acesso a benefícios exclusivos no App e no Site

    • Chega de anúncios

    • Prioridade de compra em lançamentos

    • Mais recursos no app do Afinador

    • Atendimento Prioritário

    • Descontos nos produtos Cifra Club

    • Ajude a produzir mais conteúdo

    00:00 / 00:00

    Cifra Club Pro

    Aproveite o Cifra Club com benefícios exclusivos e sem anúncios
    Cifra Club Pro
    Aproveite o Cifra Club com benefícios exclusivos e sem anúncios
    OK