Enviar cifraEntrar

Amor de Alma

Victor e Leo

Cifra: Principal
exibições 138.415
Tom: C (com acordes na forma de G) Capotraste na 5ª casa

Intro: G  Em
E|-8-8-8-8-8-8-8-8-8-8-8-8-8-8-8-8-|
B|-6-6-6-5-5-5-6-6-6-5-5-5-5-5-5-5-|
G|-5-5-5-5-5-5-5-5-5-5-5-5-5-5-5-5-|  (2x)
D|---------------------------------|
A|---------------------------------|
E|---------------------------------|


E|-5-5-5-5-5-5-5-5-5-5-5-5-5-5-5-5-|
B|-5-5-5-5-5-5-5-5-5-5-5-5-5-5-5-5-|
G|-7-7-7-5-5-5-7-7-7-5-5-5-5-5-5-5-|
D|---------------------------------|
A|---------------------------------|
E|---------------------------------|


Verso:
G                          Em
  Você me deu a mão, me levou

Pra tão distante
Am        C             D
  Tão distante do seu amor
G
  Pediu pra não sonhar
Em                          Am
E pra ficar, ficar distante
          C             D  (Riff 1)
Então me diz como explicar
Riff 1:

E|-------12----13p12---------------|
B|----13----12-------13------------|
G|-12------------------------------|
D|---------------------------------|
A|---------------------------------|
E|---------------------------------|


Refrão:
              D
Aquele nosso beijo
           Em
Beijo de amor
                 C       G
Amor que não se faz por aí
        D
Amor de alma
           C  ( C  G/B  Am  G )
Amor que acalma
    G
A alma

Solo: Em  C  Em  C  D
   Em

E|-----------------------8------10/12-10/12----------|
B|-8/10-10-10-10p8---10----10~~----------------------|
G|-----------------9---------------------------------|
D|---------------------------------------------------|
A|---------------------------------------------------|
E|---------------------------------------------------|


   C
E|-------------------8-------------------------------|
B|-8/10-10-10-10p8------8--10------------------------|
G|-----------------9----9--10------------------------|
D|---------------------------------------------------|
A|---------------------------------------------------|
E|---------------------------------------------------|


   Em
E|-12/13-13-13\12-12-12/13-13-13\12------------------|
B|-13/15-15-15\13-13-13/15-15-15\13------------------|
G|---------------------------------------------------|
D|---------------------------------------------------|
A|---------------------------------------------------|
E|---------------------------------------------------|


   C                       D
E|---------------------------------------------------|
B|-5h6-6-6p5-5-5h6-6-6p5--------------------5-8-8~~--|
G|-5h7-7-7p5-5-5h7-7-7p5---5---5--7p5---5h7----------|
D|-------------------------5h7--------7--------------|
A|---------------------------------------------------|
E|---------------------------------------------------|


G                          Em
  Você me deu a mão, me levou

Pra tão distante
Am        C             D  (Riff 2)
  Tão distante do seu amor
G
  Pediu pra não sonhar
Em                          Am
E pra ficar, ficar distante
          C             D  (Riff 1)
Então me diz como explicar
Riff 2:

E|-----7---8p7---7------7---8p7---8-8~~--------------|
B|-6h8---8-----8---6h8----8-----8--------------------|
G|---------------------------------------------------|
D|---------------------------------------------------|
A|---------------------------------------------------|
E|---------------------------------------------------|


Refrão:
              D
Aquele nosso beijo
           Em
Beijo de amor
                 C       G
Amor que não se faz por aí
        D
Amor de alma
           C
Amor que acalma
    G
A alma

              D
Aquele nosso beijo
           Em
Beijo de amor
                 C       G
Amor que não se faz por aí
        D
Amor de alma
           C
Amor que acalma
(Intro)
    A alma
  • 1
  • 2
  • 3
  • 4
  • 5
  • 6
  • 7
  • 8
  • 9
  • 10
  • 11
  • 12
    Acordes para:
      Composição: Victor ChavesColaboração e revisão:
      • v.inny
      • jhonatanfra7

      0 comentários

        mostrar mais comentários

        Conseguiu tocar?

        38tocaram0ainda não

        Grave um vídeo tocando Amor de Alma e mande pra gente!

        00:00 / 00:00
        outros vídeos desta música
        repetirqualidadeautomática
        • automática
        Outro vídeos desta música
          00:00 / 00:00
          automática
          • automática
          Acordes para:violão e guitarra
          dificuldadeexibiçõescontribuições
          fecharplay/pause subir/descer velocidade
            acordes
            fechar
            OK
            Feedback