Notificações Amigos pendentes

      Victor e Leo

      Amor de Alma

      137.308 exibições
      Tom: C (com acordes na forma de G) Capotraste na 5ª casa
      
      Intro: G  Em
      E|-8-8-8-8-8-8-8-8-8-8-8-8-8-8-8-8-|
      B|-6-6-6-5-5-5-6-6-6-5-5-5-5-5-5-5-|
      G|-5-5-5-5-5-5-5-5-5-5-5-5-5-5-5-5-|  (2x)
      D|---------------------------------|
      A|---------------------------------|
      E|---------------------------------|
      
      
      E|-5-5-5-5-5-5-5-5-5-5-5-5-5-5-5-5-|
      B|-5-5-5-5-5-5-5-5-5-5-5-5-5-5-5-5-|
      G|-7-7-7-5-5-5-7-7-7-5-5-5-5-5-5-5-|
      D|---------------------------------|
      A|---------------------------------|
      E|---------------------------------|
      
      
      Verso:
      G                          Em
        Você me deu a mão, me levou
      
      Pra tão distante
      Am        C             D
        Tão distante do seu amor
      G
        Pediu pra não sonhar
      Em                          Am
      E pra ficar, ficar distante
                C             D  (Riff 1)
      Então me diz como explicar
      Riff 1:
      
      E|-------12----13p12---------------|
      B|----13----12-------13------------|
      G|-12------------------------------|
      D|---------------------------------|
      A|---------------------------------|
      E|---------------------------------|
      
      
      Refrão:
                    D
      Aquele nosso beijo
                 Em
      Beijo de amor
                       C       G
      Amor que não se faz por aí
              D
      Amor de alma
                 C  ( C  G/B  Am  G )
      Amor que acalma
          G
      A alma
      
      Solo: Em  C  Em  C  D
         Em
      
      E|-----------------------8------10/12-10/12----------|
      B|-8/10-10-10-10p8---10----10~~----------------------|
      G|-----------------9---------------------------------|
      D|---------------------------------------------------|
      A|---------------------------------------------------|
      E|---------------------------------------------------|
      
      
         C
      E|-------------------8-------------------------------|
      B|-8/10-10-10-10p8------8--10------------------------|
      G|-----------------9----9--10------------------------|
      D|---------------------------------------------------|
      A|---------------------------------------------------|
      E|---------------------------------------------------|
      
      
         Em
      E|-12/13-13-13\12-12-12/13-13-13\12------------------|
      B|-13/15-15-15\13-13-13/15-15-15\13------------------|
      G|---------------------------------------------------|
      D|---------------------------------------------------|
      A|---------------------------------------------------|
      E|---------------------------------------------------|
      
      
         C                       D
      E|---------------------------------------------------|
      B|-5h6-6-6p5-5-5h6-6-6p5--------------------5-8-8~~--|
      G|-5h7-7-7p5-5-5h7-7-7p5---5---5--7p5---5h7----------|
      D|-------------------------5h7--------7--------------|
      A|---------------------------------------------------|
      E|---------------------------------------------------|
      
      
      G                          Em
        Você me deu a mão, me levou
      
      Pra tão distante
      Am        C             D  (Riff 2)
        Tão distante do seu amor
      G
        Pediu pra não sonhar
      Em                          Am
      E pra ficar, ficar distante
                C             D  (Riff 1)
      Então me diz como explicar
      Riff 2:
      
      E|-----7---8p7---7------7---8p7---8-8~~--------------|
      B|-6h8---8-----8---6h8----8-----8--------------------|
      G|---------------------------------------------------|
      D|---------------------------------------------------|
      A|---------------------------------------------------|
      E|---------------------------------------------------|
      
      
      Refrão:
                    D
      Aquele nosso beijo
                 Em
      Beijo de amor
                       C       G
      Amor que não se faz por aí
              D
      Amor de alma
                 C
      Amor que acalma
          G
      A alma
      
                    D
      Aquele nosso beijo
                 Em
      Beijo de amor
                       C       G
      Amor que não se faz por aí
              D
      Amor de alma
                 C
      Amor que acalma
      (Intro)
          A alma
        Composição: Victor ChavesColaboração e revisão:
        • v.inny
        • jhonatanfra7

        Comentários 45

        140 .
        • maria maria: Em 01/06/2015 12:25

          em a batida eh bbbbbbbbbbbbb e segue

        • guilherme.dopradodelara guilherme.dopradodelara: Em 25/02/2014 14:51

          essa musica e mt legar principalmente o solo

        • Alanx8 Alanx8: Em 03/06/2013 23:40

          Depois do explicar é G

        • jefersonlps jefersonlps: Em 26/03/2013 23:48

          pessam a aula la em cima clica em aula e mande seu e-mail ai vc pede a aula

        • mialmeida mialmeida: Em 21/09/2012 21:51

          blz, mas se vc mandar os solos tbm agradeço

        • bilizin bilizin: Em 15/09/2012 04:01

          mt facil ñ tem segredo ,e se alguem tive em duvida sobre a primeira parte é so continuar tocando as 3 corda da introdução seguindo os acord

        • mialmeida mialmeida: Em 23/06/2012 20:10

          vídeo aula. O Alan grava um vídeo seu pra eu ver, pois estou com dificuldade

          • allandk02 allandk02: Em 21/07/2012 10:27

            foi mal cara n vi
            vo tenta grava alguma coisa pra vc ver! blz?

        • allandk02 allandk02: Em 02/04/2012 19:46

          é facil é só pra cima e pra baixo!

        • Renan Renan: Em 23/03/2012 16:16

          essa música é fácil? é! mas não é todo iniciante q consegue pegar sem aula não. e tbm é um sucesso da dupla, merecia aula com certez

        140 cancelar
        0:00 / 0:00

        Capítulos

          2 versões de violão dificuldade exibições contribuição e correção
          2 versões de guitarra dificuldade exibições contribuição e correção
          2 versões de cavaco dificuldade exibições contribuição e correção
          2 versões de teclado dificuldade exibições contribuição e correção
          play/pausefechar subir/descer velocidade
          6ª corda E5ª corda A4ª corda D3ª corda G2ª corda B1ª corda E
            acordes
            transcrição verificada v.inny instrutor de guitarra
            publicidade
            fechar
            ok